  0
SECTION
  2
HEADER
  9
$ACADVER
  1
AC1015
  9
$ACADMAINTVER
 70
     6
  9
$DWGCODEPAGE
  3
ANSI_1254
  9
$INSBASE
 10
0.0
 20
0.0
 30
0.0
  9
$EXTMIN
 10
0.0
 20
0.0
 30
0.0
  9
$EXTMAX
 10
279.4
 20
215.9
 30
0.0
  9
$LIMMIN
 10
0.0
 20
0.0
  9
$LIMMAX
 10
279.4
 20
215.9
  9
$ORTHOMODE
 70
     0
  9
$REGENMODE
 70
     1
  9
$FILLMODE
 70
     1
  9
$QTEXTMODE
 70
     0
  9
$MIRRTEXT
 70
     1
  9
$LTSCALE
 40
1.0
  9
$ATTMODE
 70
     1
  9
$TEXTSIZE
 40
3.5
  9
$TRACEWID
 40
1.0
  9
$TEXTSTYLE
  7
Standard
  9
$CLAYER
  8
0
  9
$CELTYPE
  6
ByLayer
  9
$CECOLOR
 62
   256
  9
$CELTSCALE
 40
1.0
  9
$DISPSILH
 70
     0
  9
$DIMSCALE
 40
1.0
  9
$DIMASZ
 40
3.5
  9
$DIMEXO
 40
1.0
  9
$DIMDLI
 40
3.75
  9
$DIMRND
 40
0.0
  9
$DIMDLE
 40
0.0
  9
$DIMEXE
 40
1.0
  9
$DIMTP
 40
0.0
  9
$DIMTM
 40
0.0
  9
$DIMTXT
 40
3.5
  9
$DIMCEN
 40
2.5
  9
$DIMTSZ
 40
0.0
  9
$DIMTOL
 70
     0
  9
$DIMLIM
 70
     0
  9
$DIMTIH
 70
     1
  9
$DIMTOH
 70
     1
  9
$DIMSE1
 70
     0
  9
$DIMSE2
 70
     0
  9
$DIMTAD
 70
     1
  9
$DIMZIN
 70
     0
  9
$DIMBLK
  1

  9
$DIMASO
 70
     1
  9
$DIMSHO
 70
     1
  9
$DIMPOST
  1

  9
$DIMAPOST
  1

  9
$DIMALT
 70
     0
  9
$DIMALTD
 70
     3
  9
$DIMALTF
 40
0.0393700787
  9
$DIMLFAC
 40
1.0
  9
$DIMTOFL
 70
     1
  9
$DIMTVP
 40
0.0
  9
$DIMTIX
 70
     0
  9
$DIMSOXD
 70
     0
  9
$DIMSAH
 70
     0
  9
$DIMBLK1
  1

  9
$DIMBLK2
  1

  9
$DIMSTYLE
  2
ISO-25
  9
$DIMCLRD
 70
     0
  9
$DIMCLRE
 70
     0
  9
$DIMCLRT
 70
     0
  9
$DIMTFAC
 40
1.0
  9
$DIMGAP
 40
1.524
  9
$DIMJUST
 70
     0
  9
$DIMSD1
 70
     0
  9
$DIMSD2
 70
     0
  9
$DIMTOLJ
 70
     0
  9
$DIMTZIN
 70
     0
  9
$DIMALTZ
 70
     0
  9
$DIMALTTZ
 70
     0
  9
$DIMUPT
 70
     0
  9
$DIMDEC
 70
     2
  9
$DIMTDEC
 70
     2
  9
$DIMALTU
 70
     2
  9
$DIMALTTD
 70
     3
  9
$DIMTXSTY
  7
Standard
  9
$DIMAUNIT
 70
     0
  9
$DIMADEC
 70
     2
  9
$DIMALTRND
 40
0.0
  9
$DIMAZIN
 70
     0
  9
$DIMDSEP
 70
    44
  9
$DIMATFIT
 70
     3
  9
$DIMFRAC
 70
     0
  9
$DIMLDRBLK
  1

  9
$DIMLUNIT
 70
     2
  9
$DIMLWD
 70
    -2
  9
$DIMLWE
 70
    -2
  9
$DIMTMOVE
 70
     0
  9
$LUNITS
 70
     2
  9
$LUPREC
 70
     2
  9
$SKETCHINC
 40
1.0
  9
$FILLETRAD
 40
10.0
  9
$AUNITS
 70
     0
  9
$AUPREC
 70
     2
  9
$MENU
  1
.
  9
$ELEVATION
 40
0.0
  9
$PELEVATION
 40
0.0
  9
$THICKNESS
 40
0.0
  9
$LIMCHECK
 70
     0
  9
$CHAMFERA
 40
0.0
  9
$CHAMFERB
 40
0.0
  9
$CHAMFERC
 40
0.0
  9
$CHAMFERD
 40
0.0
  9
$SKPOLY
 70
     0
  9
$TDCREATE
 40
2459935.699927882
  9
$TDUCREATE
 40
2459935.574927882
  9
$TDUPDATE
 40
2459935.699928067
  9
$TDUUPDATE
 40
2459935.574928067
  9
$TDINDWG
 40
0.0000000116
  9
$TDUSRTIMER
 40
0.0000000116
  9
$USRTIMER
 70
     1
  9
$ANGBASE
 50
0.0
  9
$ANGDIR
 70
     0
  9
$PDMODE
 70
     0
  9
$PDSIZE
 40
-1.0
  9
$PLINEWID
 40
0.0
  9
$SPLFRAME
 70
     0
  9
$SPLINETYPE
 70
     6
  9
$SPLINESEGS
 70
     8
  9
$HANDSEED
  5
ED
  9
$SURFTAB1
 70
     6
  9
$SURFTAB2
 70
     6
  9
$SURFTYPE
 70
     6
  9
$SURFU
 70
     6
  9
$SURFV
 70
     6
  9
$UCSBASE
  2

  9
$UCSNAME
  2

  9
$UCSORG
 10
0.0
 20
0.0
 30
0.0
  9
$UCSXDIR
 10
1.0
 20
0.0
 30
0.0
  9
$UCSYDIR
 10
0.0
 20
1.0
 30
0.0
  9
$UCSORTHOREF
  2

  9
$UCSORTHOVIEW
 70
     0
  9
$UCSORGTOP
 10
0.0
 20
0.0
 30
0.0
  9
$UCSORGBOTTOM
 10
0.0
 20
0.0
 30
0.0
  9
$UCSORGLEFT
 10
0.0
 20
0.0
 30
0.0
  9
$UCSORGRIGHT
 10
0.0
 20
0.0
 30
0.0
  9
$UCSORGFRONT
 10
0.0
 20
0.0
 30
0.0
  9
$UCSORGBACK
 10
0.0
 20
0.0
 30
0.0
  9
$PUCSBASE
  2

  9
$PUCSNAME
  2

  9
$PUCSORG
 10
0.0
 20
0.0
 30
0.0
  9
$PUCSXDIR
 10
1.0
 20
0.0
 30
0.0
  9
$PUCSYDIR
 10
0.0
 20
1.0
 30
0.0
  9
$PUCSORTHOREF
  2

  9
$PUCSORTHOVIEW
 70
     0
  9
$PUCSORGTOP
 10
0.0
 20
0.0
 30
0.0
  9
$PUCSORGBOTTOM
 10
0.0
 20
0.0
 30
0.0
  9
$PUCSORGLEFT
 10
0.0
 20
0.0
 30
0.0
  9
$PUCSORGRIGHT
 10
0.0
 20
0.0
 30
0.0
  9
$PUCSORGFRONT
 10
0.0
 20
0.0
 30
0.0
  9
$PUCSORGBACK
 10
0.0
 20
0.0
 30
0.0
  9
$USERI1
 70
     0
  9
$USERI2
 70
     0
  9
$USERI3
 70
     0
  9
$USERI4
 70
     0
  9
$USERI5
 70
     0
  9
$USERR1
 40
0.0
  9
$USERR2
 40
0.0
  9
$USERR3
 40
0.0
  9
$USERR4
 40
0.0
  9
$USERR5
 40
0.0
  9
$WORLDVIEW
 70
     1
  9
$SHADEDGE
 70
     3
  9
$SHADEDIF
 70
    70
  9
$TILEMODE
 70
     1
  9
$MAXACTVP
 70
    64
  9
$PINSBASE
 10
0.0
 20
0.0
 30
0.0
  9
$PLIMCHECK
 70
     0
  9
$PEXTMIN
 10
1.0000000000E+20
 20
1.0000000000E+20
 30
1.0000000000E+20
  9
$PEXTMAX
 10
-1.0000000000E+20
 20
-1.0000000000E+20
 30
-1.0000000000E+20
  9
$PLIMMIN
 10
0.0
 20
0.0
  9
$PLIMMAX
 10
420.0
 20
297.0
  9
$UNITMODE
 70
     0
  9
$VISRETAIN
 70
     1
  9
$PLINEGEN
 70
     0
  9
$PSLTSCALE
 70
     1
  9
$TREEDEPTH
 70
  3020
  9
$CMLSTYLE
  2
Standard
  9
$CMLJUST
 70
     0
  9
$CMLSCALE
 40
20.0
  9
$PROXYGRAPHICS
 70
     1
  9
$MEASUREMENT
 70
     1
  9
$CELWEIGHT
370
    -1
  9
$ENDCAPS
280
     0
  9
$JOINSTYLE
280
     0
  9
$LWDISPLAY
290
     1
  9
$INSUNITS
 70
     4
  9
$HYPERLINKBASE
  1

  9
$STYLESHEET
  1

  9
$XEDIT
290
     1
  9
$CEPSNTYPE
380
     0
  9
$PSTYLEMODE
290
     1
  9
$FINGERPRINTGUID
  2
{892381ed-d819-479d-a4e8-563043781c8e}
  9
$VERSIONGUID
  2
{FAEB1C32-E019-11D5-929B-00C0DF256EC4}
  9
$EXTNAMES
290
     1
  9
$PSVPSCALE
 40
0.0
  9
$OLESTARTUP
290
     0
  0
ENDSEC
  0
SECTION
  2
CLASSES
  0
CLASS
  1
ACDBDICTIONARYWDFLT
  2
AcDbDictionaryWithDefault
  3
ObjectDBX Classes
 90
        0
280
     0
281
     0
  0
CLASS
  1
VISUALSTYLE
  2
AcDbVisualStyle
  3
ObjectDBX Classes
 90
     4095
280
     0
281
     0
  0
CLASS
  1
MATERIAL
  2
AcDbMaterial
  3
ObjectDBX Classes
 90
     1153
280
     0
281
     0
  0
CLASS
  1
SCALE
  2
AcDbScale
  3
ObjectDBX Classes
 90
     1153
280
     0
281
     0
  0
CLASS
  1
TABLESTYLE
  2
AcDbTableStyle
  3
ObjectDBX Classes
 90
     4095
280
     0
281
     0
  0
CLASS
  1
MLEADERSTYLE
  2
AcDbMLeaderStyle
  3
ACDB_MLEADERSTYLE_CLASS
 90
     4095
280
     0
281
     0
  0
CLASS
  1
SUN
  2
AcDbSun
  3
SCENEOE
 90
     1153
280
     0
281
     0
  0
CLASS
  1
ACDBPLACEHOLDER
  2
AcDbPlaceHolder
  3
ObjectDBX Classes
 90
        0
280
     0
281
     0
  0
CLASS
  1
LAYOUT
  2
AcDbLayout
  3
ObjectDBX Classes
 90
        0
280
     0
281
     0
  0
ENDSEC
  0
SECTION
  2
TABLES
  0
TABLE
  2
VPORT
  5
8
330
0
100
AcDbSymbolTable
 70
     1
  0
VPORT
  5
29
330
8
100
AcDbSymbolTableRecord
100
AcDbViewportTableRecord
  2
*Active
 70
     0
 10
0.0
 20
0.0
 11
1.0
 21
1.0
 12
139.7
 22
107.95
 13
0.0
 23
0.0
 14
10.0
 24
10.0
 15
10.0
 25
10.0
 16
0.0
 26
0.0
 36
1.0
 17
0.0
 27
0.0
 37
0.0
 40
215.9
 41
1.2941176471
 42
50.0
 43
0.0
 44
0.0
 50
0.0
 51
0.0
 71
     0
 72
  2000
 73
     1
 74
     3
 75
     0
 76
     0
 77
     0
 78
     0
281
     0
 65
     1
110
0.0
120
0.0
130
0.0
111
1.0
121
0.0
131
0.0
112
0.0
122
1.0
132
0.0
 79
     0
146
0.0
  0
ENDTAB
  0
TABLE
  2
LTYPE
  5
5
330
0
100
AcDbSymbolTable
 70
     6
  0
LTYPE
  5
14
330
5
100
AcDbSymbolTableRecord
100
AcDbLinetypeTableRecord
  2
ByBlock
 70
     0
  3

 72
    65
 73
     0
 40
0.0
  0
LTYPE
  5
15
330
5
100
AcDbSymbolTableRecord
100
AcDbLinetypeTableRecord
  2
ByLayer
 70
     0
  3

 72
    65
 73
     0
 40
0.0
  0
LTYPE
  5
16
330
5
100
AcDbSymbolTableRecord
100
AcDbLinetypeTableRecord
  2
Continuous
 70
     0
  3
Solid line
 72
    65
 73
     0
 40
0.0
  0
LTYPE
  5
6E
330
5
100
AcDbSymbolTableRecord
100
AcDbLinetypeTableRecord
  2
HIDDEN
 70
     0
  3
Hidden __ __ __ __ __ __ __ __ __ __ __ __ __ __
 72
    65
 73
     2
 40
1.905
 49
1.27
 74
     0
 49
-0.635
 74
     0
  0
LTYPE
  5
6F
330
5
100
AcDbSymbolTableRecord
100
AcDbLinetypeTableRecord
  2
PHANTOM
 70
     0
  3
Phantom ______  __  __  ______  __  __  ______
 72
    65
 73
     6
 40
12.7
 49
6.35
 74
     0
 49
-1.27
 74
     0
 49
1.27
 74
     0
 49
-1.27
 74
     0
 49
1.27
 74
     0
 49
-1.27
 74
     0
  0
LTYPE
  5
70
330
5
100
AcDbSymbolTableRecord
100
AcDbLinetypeTableRecord
  2
CENTER
 70
     0
  3
Center ____ _ ____ _ ____ _ ____ _ ____ _ ____
 72
    65
 73
     4
 40
10.16
 49
6.35
 74
     0
 49
-1.27
 74
     0
 49
1.27
 74
     0
 49
-1.27
 74
     0
  0
LTYPE
  5
71
330
5
100
AcDbSymbolTableRecord
100
AcDbLinetypeTableRecord
  2
CENTERX2
 70
     0
  3
Center (2x) ________  __  ________  __  _____
 72
    65
 73
     4
 40
20.32
 49
12.7
 74
     0
 49
-2.54
 74
     0
 49
2.54
 74
     0
 49
-2.54
 74
     0
  0
LTYPE
  5
72
330
5
100
AcDbSymbolTableRecord
100
AcDbLinetypeTableRecord
  2
DOT2
 70
     0
  3
Dot (.5x) ........................................
 72
    65
 73
     2
 40
0.635
 49
0.0
 74
     0
 49
-0.635
 74
     0
  0
ENDTAB
  0
TABLE
  2
LAYER
  5
2
330
0
100
AcDbSymbolTable
 70
    17
  0
LAYER
  5
10
330
2
100
AcDbSymbolTableRecord
100
AcDbLayerTableRecord
  2
0
 70
     0
 62
     7
  6
Continuous
370
    -3
390
F
  0
LAYER
  5
73
330
2
100
AcDbSymbolTableRecord
100
AcDbLayerTableRecord
  2
FORMAT
 70
     0
 62
     7
  6
Continuous
370
    -3
390
F
  0
LAYER
  5
74
330
2
100
AcDbSymbolTableRecord
100
AcDbLayerTableRecord
  2
YARDIMCI_GEOMETRI
 70
     0
 62
    -6
  6
Continuous
290
     0
370
    -3
390
F
  0
LAYER
  5
75
330
2
100
AcDbSymbolTableRecord
100
AcDbLayerTableRecord
  2
SAYFA_CERCEVESI
 70
     0
 62
     7
  6
Continuous
370
    25
390
F
  0
LAYER
  5
76
330
2
100
AcDbSymbolTableRecord
100
AcDbLayerTableRecord
  2
ANTET
 70
     0
 62
     7
  6
Continuous
370
    -3
390
F
  0
LAYER
  5
77
330
2
100
AcDbSymbolTableRecord
100
AcDbLayerTableRecord
  2
OLCU
 70
     0
 62
   150
  6
Continuous
370
    -3
390
F
  0
LAYER
  5
78
330
2
100
AcDbSymbolTableRecord
100
AcDbLayerTableRecord
  2
METIN
 70
     0
 62
    96
  6
Continuous
370
    -3
390
F
  0
LAYER
  5
79
330
2
100
AcDbSymbolTableRecord
100
AcDbLayerTableRecord
  2
BALON
 70
     0
 62
     5
  6
Continuous
370
    -3
390
F
  0
LAYER
  5
7A
330
2
100
AcDbSymbolTableRecord
100
AcDbLayerTableRecord
  2
VURGU
 70
     0
 62
     7
  6
Continuous
370
    -3
390
F
  0
LAYER
  5
7B
330
2
100
AcDbSymbolTableRecord
100
AcDbLayerTableRecord
  2
SILIK
 70
     0
 62
     7
  6
Continuous
370
    -3
390
F
  0
LAYER
  5
7C
330
2
100
AcDbSymbolTableRecord
100
AcDbLayerTableRecord
  2
MODEL
 70
     0
 62
     7
  6
Continuous
370
    -3
390
F
  0
LAYER
  5
7D
330
2
100
AcDbSymbolTableRecord
100
AcDbLayerTableRecord
  2
DETAYLANDıRMA
 70
     0
 62
   190
  6
Continuous
370
    -3
390
F
  0
LAYER
  5
7E
330
2
100
AcDbSymbolTableRecord
100
AcDbLayerTableRecord
  2
TOLERANS
 70
     0
 62
   230
  6
Continuous
370
    -3
390
F
  0
LAYER
  5
7F
330
2
100
AcDbSymbolTableRecord
100
AcDbLayerTableRecord
  2
MERKEZ_CIZGILERI
 70
     0
 62
    30
  6
Continuous
370
    -3
390
F
  0
LAYER
  5
80
330
2
100
AcDbSymbolTableRecord
100
AcDbLayerTableRecord
  2
KESIT-DETAY_CIZGILERI
 70
     0
 62
     7
  6
Continuous
370
    -3
390
F
  0
LAYER
  5
81
330
2
100
AcDbSymbolTableRecord
100
AcDbLayerTableRecord
  2
\U+041E\U+0421\U+0415\U+0412\U+042B\U+0415
 70
     0
 62
     7
  6
Continuous
370
    -3
390
F
  0
LAYER
  5
82
330
2
100
AcDbSymbolTableRecord
100
AcDbLayerTableRecord
  2
\U+0412\U+041E\U+0414\U+042F\U+041D\U+042B\U+0415_\U+0417\U+041D\U+0410\U+041A\U+0418
 70
     0
 62
    11
  6
Continuous
370
    -3
390
F
  0
ENDTAB
  0
TABLE
  2
STYLE
  5
3
330
0
100
AcDbSymbolTable
 70
     1
  0
STYLE
  5
11
330
3
100
AcDbSymbolTableRecord
100
AcDbTextStyleTableRecord
  2
Standard
 70
     0
 40
0.0
 41
1.0
 50
0.0
 71
     0
 42
3.5
  3
txt
  4

  0
ENDTAB
  0
TABLE
  2
VIEW
  5
6
330
0
100
AcDbSymbolTable
 70
     0
  0
ENDTAB
  0
TABLE
  2
UCS
  5
7
330
0
100
AcDbSymbolTable
 70
     0
  0
ENDTAB
  0
TABLE
  2
APPID
  5
9
330
0
100
AcDbSymbolTable
 70
     1
  0
APPID
  5
12
330
9
100
AcDbSymbolTableRecord
100
AcDbRegAppTableRecord
  2
ACAD
 70
     0
  0
ENDTAB
  0
TABLE
  2
DIMSTYLE
  5
A
330
0
100
AcDbSymbolTable
 70
     1
100
AcDbDimStyleTable
  0
DIMSTYLE
105
27
330
A
100
AcDbSymbolTableRecord
100
AcDbDimStyleTableRecord
  2
ISO-25
 70
     0
 41
2.5
 42
0.625
 43
3.75
 44
1.25
 73
     0
 74
     0
 77
     1
 78
     8
140
2.5
141
2.5
143
0.0393700787
147
0.625
171
     3
172
     1
178
     0
271
     2
272
     2
274
     3
278
    44
283
     0
284
     8
340
11
  0
ENDTAB
  0
TABLE
  2
BLOCK_RECORD
  5
1
330
0
100
AcDbSymbolTable
 70
     5
  0
BLOCK_RECORD
  5
1F
330
1
100
AcDbSymbolTableRecord
100
AcDbBlockTableRecord
  2
*Model_Space
340
22
  0
BLOCK_RECORD
  5
1B
330
1
100
AcDbSymbolTableRecord
100
AcDbBlockTableRecord
  2
*Paper_Space
340
1E
  0
BLOCK_RECORD
  5
23
330
1
100
AcDbSymbolTableRecord
100
AcDbBlockTableRecord
  2
*Paper_Space0
340
26
  0
BLOCK_RECORD
  5
97
330
1
100
AcDbSymbolTableRecord
100
AcDbBlockTableRecord
  2
SW_CENTERMARKSYMBOL_0
340
0
102
{BLKREFS
331
A2
102
}
  0
BLOCK_RECORD
  5
AC
330
1
100
AcDbSymbolTableRecord
100
AcDbBlockTableRecord
  2
SW_CENTERMARKSYMBOL_1
340
0
102
{BLKREFS
331
B7
102
}
  0
BLOCK_RECORD
  5
BF
330
1
100
AcDbSymbolTableRecord
100
AcDbBlockTableRecord
  2
SW_CENTERMARKSYMBOL_2
340
0
102
{BLKREFS
331
CA
102
}
  0
BLOCK_RECORD
  5
D2
330
1
100
AcDbSymbolTableRecord
100
AcDbBlockTableRecord
  2
SW_CENTERMARKSYMBOL_3
340
0
102
{BLKREFS
331
DD
102
}
  0
ENDTAB
  0
ENDSEC
  0
SECTION
  2
BLOCKS
  0
BLOCK
  5
20
330
1F
100
AcDbEntity
  8
0
100
AcDbBlockBegin
  2
*Model_Space
 70
     0
 10
0.0
 20
0.0
 30
0.0
  3
*Model_Space
  1

  0
ENDBLK
  5
21
330
1F
100
AcDbEntity
  8
0
100
AcDbBlockEnd
  0
BLOCK
  5
1C
330
1B
100
AcDbEntity
 67
     1
  8
0
100
AcDbBlockBegin
  2
*Paper_Space
 70
     0
 10
0.0
 20
0.0
 30
0.0
  3
*Paper_Space
  1

  0
ENDBLK
  5
1D
330
1B
100
AcDbEntity
 67
     1
  8
0
100
AcDbBlockEnd
  0
BLOCK
  5
24
330
23
100
AcDbEntity
  8
0
100
AcDbBlockBegin
  2
*Paper_Space0
 70
     0
 10
0.0
 20
0.0
 30
0.0
  3
*Paper_Space0
  1

  0
ENDBLK
  5
25
330
23
100
AcDbEntity
  8
0
100
AcDbBlockEnd
  0
BLOCK
  5
98
330
97
100
AcDbEntity
  8
0
100
AcDbBlockBegin
  2
SW_CENTERMARKSYMBOL_0
 70
     0
 10
0.0
 20
0.0
 30
0.0
  3
SW_CENTERMARKSYMBOL_0
  1

  0
LINE
  5
9A
330
97
100
AcDbEntity
  8
FORMAT
 62
     0
100
AcDbLine
 10
0.0
 20
0.0
 30
0.0
 11
0.0
 21
2.5
 31
0.0
  0
LINE
  5
9B
330
97
100
AcDbEntity
  8
FORMAT
 62
     0
100
AcDbLine
 10
0.0
 20
0.0
 30
0.0
 11
-2.5
 21
0.0
 31
0.0
  0
LINE
  5
9C
330
97
100
AcDbEntity
  8
FORMAT
 62
     0
100
AcDbLine
 10
0.0
 20
0.0
 30
0.0
 11
0.0
 21
-2.5
 31
0.0
  0
LINE
  5
9D
330
97
100
AcDbEntity
  8
FORMAT
 62
     0
100
AcDbLine
 10
0.0
 20
0.0
 30
0.0
 11
2.5
 21
0.0
 31
0.0
  0
LINE
  5
9E
330
97
100
AcDbEntity
  8
FORMAT
 62
     0
100
AcDbLine
 10
0.0
 20
5.0
 30
0.0
 11
0.0
 21
180.0
 31
0.0
  0
LINE
  5
9F
330
97
100
AcDbEntity
  8
FORMAT
 62
     0
100
AcDbLine
 10
-5.0
 20
0.0
 30
0.0
 11
-180.0
 21
0.0
 31
0.0
  0
LINE
  5
A0
330
97
100
AcDbEntity
  8
FORMAT
 62
     0
100
AcDbLine
 10
0.0
 20
-5.0
 30
0.0
 11
0.0
 21
-180.0
 31
0.0
  0
LINE
  5
A1
330
97
100
AcDbEntity
  8
FORMAT
 62
     0
100
AcDbLine
 10
5.0
 20
0.0
 30
0.0
 11
180.0
 21
0.0
 31
0.0
  0
ENDBLK
  5
99
330
97
100
AcDbEntity
  8
0
100
AcDbBlockEnd
  0
BLOCK
  5
AD
330
AC
100
AcDbEntity
  8
0
100
AcDbBlockBegin
  2
SW_CENTERMARKSYMBOL_1
 70
     0
 10
0.0
 20
0.0
 30
0.0
  3
SW_CENTERMARKSYMBOL_1
  1

  0
LINE
  5
AF
330
AC
100
AcDbEntity
  8
FORMAT
 62
     0
100
AcDbLine
 10
0.0
 20
0.0
 30
0.0
 11
0.0
 21
2.5
 31
0.0
  0
LINE
  5
B0
330
AC
100
AcDbEntity
  8
FORMAT
 62
     0
100
AcDbLine
 10
0.0
 20
0.0
 30
0.0
 11
-2.5
 21
0.0
 31
0.0
  0
LINE
  5
B1
330
AC
100
AcDbEntity
  8
FORMAT
 62
     0
100
AcDbLine
 10
0.0
 20
0.0
 30
0.0
 11
0.0
 21
-2.5
 31
0.0
  0
LINE
  5
B2
330
AC
100
AcDbEntity
  8
FORMAT
 62
     0
100
AcDbLine
 10
0.0
 20
0.0
 30
0.0
 11
2.5
 21
0.0
 31
0.0
  0
LINE
  5
B3
330
AC
100
AcDbEntity
  8
FORMAT
 62
     0
100
AcDbLine
 10
0.0
 20
5.0
 30
0.0
 11
0.0
 21
180.0
 31
0.0
  0
LINE
  5
B4
330
AC
100
AcDbEntity
  8
FORMAT
 62
     0
100
AcDbLine
 10
-5.0
 20
0.0
 30
0.0
 11
-180.0
 21
0.0
 31
0.0
  0
LINE
  5
B5
330
AC
100
AcDbEntity
  8
FORMAT
 62
     0
100
AcDbLine
 10
0.0
 20
-5.0
 30
0.0
 11
0.0
 21
-180.0
 31
0.0
  0
LINE
  5
B6
330
AC
100
AcDbEntity
  8
FORMAT
 62
     0
100
AcDbLine
 10
5.0
 20
0.0
 30
0.0
 11
180.0
 21
0.0
 31
0.0
  0
ENDBLK
  5
AE
330
AC
100
AcDbEntity
  8
0
100
AcDbBlockEnd
  0
BLOCK
  5
C0
330
BF
100
AcDbEntity
  8
0
100
AcDbBlockBegin
  2
SW_CENTERMARKSYMBOL_2
 70
     0
 10
0.0
 20
0.0
 30
0.0
  3
SW_CENTERMARKSYMBOL_2
  1

  0
LINE
  5
C2
330
BF
100
AcDbEntity
  8
FORMAT
 62
     0
100
AcDbLine
 10
0.0
 20
0.0
 30
0.0
 11
0.0
 21
2.5
 31
0.0
  0
LINE
  5
C3
330
BF
100
AcDbEntity
  8
FORMAT
 62
     0
100
AcDbLine
 10
0.0
 20
0.0
 30
0.0
 11
-2.5
 21
0.0
 31
0.0
  0
LINE
  5
C4
330
BF
100
AcDbEntity
  8
FORMAT
 62
     0
100
AcDbLine
 10
0.0
 20
0.0
 30
0.0
 11
0.0
 21
-2.5
 31
0.0
  0
LINE
  5
C5
330
BF
100
AcDbEntity
  8
FORMAT
 62
     0
100
AcDbLine
 10
0.0
 20
0.0
 30
0.0
 11
2.5
 21
0.0
 31
0.0
  0
LINE
  5
C6
330
BF
100
AcDbEntity
  8
FORMAT
 62
     0
100
AcDbLine
 10
0.0
 20
5.0
 30
0.0
 11
0.0
 21
180.0
 31
0.0
  0
LINE
  5
C7
330
BF
100
AcDbEntity
  8
FORMAT
 62
     0
100
AcDbLine
 10
-5.0
 20
0.0
 30
0.0
 11
-180.0
 21
0.0
 31
0.0
  0
LINE
  5
C8
330
BF
100
AcDbEntity
  8
FORMAT
 62
     0
100
AcDbLine
 10
0.0
 20
-5.0
 30
0.0
 11
0.0
 21
-180.0
 31
0.0
  0
LINE
  5
C9
330
BF
100
AcDbEntity
  8
FORMAT
 62
     0
100
AcDbLine
 10
5.0
 20
0.0
 30
0.0
 11
180.0
 21
0.0
 31
0.0
  0
ENDBLK
  5
C1
330
BF
100
AcDbEntity
  8
0
100
AcDbBlockEnd
  0
BLOCK
  5
D3
330
D2
100
AcDbEntity
  8
0
100
AcDbBlockBegin
  2
SW_CENTERMARKSYMBOL_3
 70
     0
 10
0.0
 20
0.0
 30
0.0
  3
SW_CENTERMARKSYMBOL_3
  1

  0
LINE
  5
D5
330
D2
100
AcDbEntity
  8
FORMAT
 62
     0
100
AcDbLine
 10
0.0
 20
0.0
 30
0.0
 11
0.0
 21
2.5
 31
0.0
  0
LINE
  5
D6
330
D2
100
AcDbEntity
  8
FORMAT
 62
     0
100
AcDbLine
 10
0.0
 20
0.0
 30
0.0
 11
-2.5
 21
0.0
 31
0.0
  0
LINE
  5
D7
330
D2
100
AcDbEntity
  8
FORMAT
 62
     0
100
AcDbLine
 10
0.0
 20
0.0
 30
0.0
 11
0.0
 21
-2.5
 31
0.0
  0
LINE
  5
D8
330
D2
100
AcDbEntity
  8
FORMAT
 62
     0
100
AcDbLine
 10
0.0
 20
0.0
 30
0.0
 11
2.5
 21
0.0
 31
0.0
  0
LINE
  5
D9
330
D2
100
AcDbEntity
  8
FORMAT
 62
     0
100
AcDbLine
 10
0.0
 20
5.0
 30
0.0
 11
0.0
 21
180.0
 31
0.0
  0
LINE
  5
DA
330
D2
100
AcDbEntity
  8
FORMAT
 62
     0
100
AcDbLine
 10
-5.0
 20
0.0
 30
0.0
 11
-180.0
 21
0.0
 31
0.0
  0
LINE
  5
DB
330
D2
100
AcDbEntity
  8
FORMAT
 62
     0
100
AcDbLine
 10
0.0
 20
-5.0
 30
0.0
 11
0.0
 21
-180.0
 31
0.0
  0
LINE
  5
DC
330
D2
100
AcDbEntity
  8
FORMAT
 62
     0
100
AcDbLine
 10
5.0
 20
0.0
 30
0.0
 11
180.0
 21
0.0
 31
0.0
  0
ENDBLK
  5
D4
330
D2
100
AcDbEntity
  8
0
100
AcDbBlockEnd
  0
ENDSEC
  0
SECTION
  2
ENTITIES
  0
LINE
  5
83
330
1F
100
AcDbEntity
  8
0
  6
Continuous
 62
     7
370
    25
100
AcDbLine
 10
-110.3459387612
 20
30.5448680735
 30
0.0
 11
-110.3459387612
 21
-192.9551319265
 31
0.0
  0
LINE
  5
84
330
1F
100
AcDbEntity
  8
0
  6
Continuous
 62
     7
370
    25
100
AcDbLine
 10
244.6540612388
 20
-192.9551319265
 30
0.0
 11
244.6540612388
 21
30.5448680735
 31
0.0
  0
ARC
  5
85
330
1F
100
AcDbEntity
  8
0
  6
Continuous
 62
     7
370
    25
100
AcDbCircle
 10
244.6540612388
 20
30.5448680735
 30
0.0
 40
355.0
100
AcDbArc
 50
90.0
 51
180.0
  0
LINE
  5
86
330
1F
100
AcDbEntity
  8
0
  6
Continuous
 62
     7
370
    25
100
AcDbLine
 10
468.1540612388
 20
385.5448680735
 30
0.0
 11
244.6540612388
 21
385.5448680735
 31
0.0
  0
LINE
  5
87
330
1F
100
AcDbEntity
  8
0
  6
Continuous
 62
     7
370
    25
100
AcDbLine
 10
244.6540612388
 20
30.5448680735
 30
0.0
 11
468.1540612388
 21
30.5448680735
 31
0.0
  0
LINE
  5
88
330
1F
100
AcDbEntity
  8
0
  6
Continuous
 62
     7
370
    25
100
AcDbLine
 10
67.1540612388
 20
-192.9551319265
 30
0.0
 11
244.6540612388
 21
-192.9551319265
 31
0.0
  0
LINE
  5
89
330
1F
100
AcDbEntity
  8
0
  6
Continuous
 62
     7
370
    25
100
AcDbLine
 10
-110.3459387612
 20
-192.9551319265
 30
0.0
 11
67.1540612388
 21
-192.9551319265
 31
0.0
  0
LINE
  5
8A
330
1F
100
AcDbEntity
  8
0
  6
Continuous
 62
     7
370
    25
100
AcDbLine
 10
468.1540612388
 20
208.0448680735
 30
0.0
 11
468.1540612388
 21
30.5448680735
 31
0.0
  0
LINE
  5
8B
330
1F
100
AcDbEntity
  8
0
  6
Continuous
 62
     7
370
    25
100
AcDbLine
 10
468.1540612388
 20
385.5448680735
 30
0.0
 11
468.1540612388
 21
208.0448680735
 31
0.0
  0
LINE
  5
8C
330
1F
100
AcDbEntity
  8
0
  6
Continuous
 62
     1
370
    25
100
AcDbLine
 10
-110.3459387612
 20
30.5448680735
 30
0.0
 11
244.6540612388
 21
30.5448680735
 31
0.0
  0
LINE
  5
8D
330
1F
100
AcDbEntity
  8
0
  6
Continuous
 62
     1
370
    25
100
AcDbLine
 10
244.6540612388
 20
385.5448680735
 30
0.0
 11
244.6540612388
 21
30.5448680735
 31
0.0
  0
LINE
  5
8E
330
1F
100
AcDbEntity
  8
0
  6
Continuous
 62
     7
370
    25
100
AcDbLine
 10
-624.7735096386
 20
208.0448680735
 30
0.0
 11
-624.7735096386
 21
30.5448680735
 31
0.0
  0
LINE
  5
8F
330
1F
100
AcDbEntity
  8
0
  6
Continuous
 62
     7
370
    25
100
AcDbLine
 10
-269.7735096386
 20
30.5448680735
 30
0.0
 11
-269.7735096386
 21
208.0448680735
 31
0.0
  0
LINE
  5
90
330
1F
100
AcDbEntity
  8
0
  6
Continuous
 62
     7
370
    25
100
AcDbLine
 10
-624.7735096386
 20
30.5448680735
 30
0.0
 11
-624.7735096386
 21
-192.9551319265
 31
0.0
  0
LINE
  5
91
330
1F
100
AcDbEntity
  8
0
  6
Continuous
 62
     7
370
    25
100
AcDbLine
 10
-269.7735096386
 20
-192.9551319265
 30
0.0
 11
-269.7735096386
 21
30.5448680735
 31
0.0
  0
CIRCLE
  5
92
330
1F
100
AcDbEntity
  8
0
  6
Continuous
 62
     7
370
    25
100
AcDbCircle
 10
-447.2735096386
 20
208.0448680735
 30
0.0
 40
177.5000000000001
  0
CIRCLE
  5
93
330
1F
100
AcDbEntity
  8
0
  6
Continuous
 62
     7
370
    25
100
AcDbCircle
 10
-447.2735096386
 20
208.0448680735
 30
0.0
 40
156.4
  0
LINE
  5
94
330
1F
100
AcDbEntity
  8
0
  6
Continuous
 62
     7
370
    25
100
AcDbLine
 10
-624.7735096386
 20
-192.9551319265
 30
0.0
 11
-269.7735096386
 21
-192.9551319265
 31
0.0
  0
LINE
  5
95
330
1F
100
AcDbEntity
  8
0
  6
Continuous
 62
     1
370
    25
100
AcDbLine
 10
-447.2735096386
 20
30.5448680735
 30
0.0
 11
-269.7735096386
 21
30.5448680735
 31
0.0
  0
LINE
  5
96
330
1F
100
AcDbEntity
  8
0
  6
Continuous
 62
     1
370
    25
100
AcDbLine
 10
-624.7735096386
 20
30.5448680735
 30
0.0
 11
-447.2735096386
 21
30.5448680735
 31
0.0
  0
INSERT
  5
A2
330
1F
100
AcDbEntity
  8
FORMAT
 62
     7
100
AcDbBlockReference
  2
SW_CENTERMARKSYMBOL_0
 10
-447.2735096386
 20
208.0448680735
 30
0.0
  0
LINE
  5
A3
330
1F
100
AcDbEntity
  8
0
  6
Continuous
 62
     7
370
    25
100
AcDbLine
 10
468.1540612388
 20
937.6010684464
 30
0.0
 11
244.6540612388
 21
937.6010684464
 31
0.0
  0
LINE
  5
A4
330
1F
100
AcDbEntity
  8
0
  6
Continuous
 62
     7
370
    25
100
AcDbLine
 10
244.6540612388
 20
582.6010684464
 30
0.0
 11
468.1540612388
 21
582.6010684464
 31
0.0
  0
LINE
  5
A5
330
1F
100
AcDbEntity
  8
0
  6
Continuous
 62
     7
370
    25
100
AcDbLine
 10
244.6540612388
 20
937.6010684464
 30
0.0
 11
67.1540612388
 21
937.6010684464
 31
0.0
  0
LINE
  5
A6
330
1F
100
AcDbEntity
  8
0
  6
Continuous
 62
     7
370
    25
100
AcDbLine
 10
67.1540612388
 20
582.6010684464
 30
0.0
 11
244.6540612388
 21
582.6010684464
 31
0.0
  0
CIRCLE
  5
A7
330
1F
100
AcDbEntity
  8
0
  6
Continuous
 62
     7
370
    25
100
AcDbCircle
 10
67.1540612388
 20
760.1010684464
 30
0.0
 40
156.4
  0
CIRCLE
  5
A8
330
1F
100
AcDbEntity
  8
0
  6
Continuous
 62
     7
370
    25
100
AcDbCircle
 10
67.1540612388
 20
760.1010684464
 30
0.0
 40
177.5
  0
LINE
  5
A9
330
1F
100
AcDbEntity
  8
0
  6
Continuous
 62
     7
370
    25
100
AcDbLine
 10
468.1540612388
 20
937.6010684464
 30
0.0
 11
468.1540612388
 21
582.6010684464
 31
0.0
  0
LINE
  5
AA
330
1F
100
AcDbEntity
  8
0
  6
Continuous
 62
     1
370
    25
100
AcDbLine
 10
244.6540612388
 20
760.1010684464
 30
0.0
 11
244.6540612388
 21
582.6010684464
 31
0.0
  0
LINE
  5
AB
330
1F
100
AcDbEntity
  8
0
  6
Continuous
 62
     1
370
    25
100
AcDbLine
 10
244.6540612388
 20
937.6010684464
 30
0.0
 11
244.6540612388
 21
760.1010684464
 31
0.0
  0
INSERT
  5
B7
330
1F
100
AcDbEntity
  8
FORMAT
 62
     7
100
AcDbBlockReference
  2
SW_CENTERMARKSYMBOL_1
 10
67.1540612388
 20
760.1010684464
 30
0.0
  0
LINE
  5
B8
330
1F
100
AcDbEntity
  8
0
  6
Continuous
 62
     7
370
    25
100
AcDbLine
 10
696.5640727892
 20
30.5448680735
 30
0.0
 11
696.5640727892
 21
-192.9551319265
 31
0.0
  0
LINE
  5
B9
330
1F
100
AcDbEntity
  8
0
  6
Continuous
 62
     7
370
    25
100
AcDbLine
 10
1051.5640727892
 20
-192.9551319265
 30
0.0
 11
1051.5640727892
 21
30.5448680735
 31
0.0
  0
LINE
  5
BA
330
1F
100
AcDbEntity
  8
0
  6
Continuous
 62
     7
370
    25
100
AcDbLine
 10
1051.5640727892
 20
30.5448680735
 30
0.0
 11
1051.5640727892
 21
208.0448680735
 31
0.0
  0
LINE
  5
BB
330
1F
100
AcDbEntity
  8
0
  6
Continuous
 62
     7
370
    25
100
AcDbLine
 10
696.5640727892
 20
208.0448680735
 30
0.0
 11
696.5640727892
 21
30.5448680735
 31
0.0
  0
LINE
  5
BC
330
1F
100
AcDbEntity
  8
0
  6
Continuous
 62
     7
370
    25
100
AcDbLine
 10
696.5640727892
 20
-192.9551319265
 30
0.0
 11
1051.5640727892
 21
-192.9551319265
 31
0.0
  0
ARC
  5
BD
330
1F
100
AcDbEntity
  8
0
  6
Continuous
 62
     7
370
    25
100
AcDbCircle
 10
874.0640727892
 20
208.0448680735
 30
0.0
 40
177.5
100
AcDbArc
 50
0.0
 51
180.0
  0
LINE
  5
BE
330
1F
100
AcDbEntity
  8
0
  6
Continuous
 62
     1
370
    25
100
AcDbLine
 10
696.5640727892
 20
30.5448680735
 30
0.0
 11
1051.5640727892
 21
30.5448680735
 31
0.0
  0
INSERT
  5
CA
330
1F
100
AcDbEntity
  8
FORMAT
 62
     7
100
AcDbBlockReference
  2
SW_CENTERMARKSYMBOL_2
 10
874.0640727892
 20
208.0448680735
 30
0.0
  0
LINE
  5
CB
330
1F
100
AcDbEntity
  8
0
  6
Continuous
 62
     7
370
    25
100
AcDbLine
 10
67.1540612388
 20
-795.3118095317
 30
0.0
 11
244.6540612388
 21
-795.3118095317
 31
0.0
  0
LINE
  5
CC
330
1F
100
AcDbEntity
  8
0
  6
Continuous
 62
     7
370
    25
100
AcDbLine
 10
244.6540612388
 20
-440.3118095317
 30
0.0
 11
67.1540612388
 21
-440.3118095317
 31
0.0
  0
LINE
  5
CD
330
1F
100
AcDbEntity
  8
0
  6
Continuous
 62
     7
370
    25
100
AcDbLine
 10
468.1540612388
 20
-440.3118095317
 30
0.0
 11
244.6540612388
 21
-440.3118095317
 31
0.0
  0
LINE
  5
CE
330
1F
100
AcDbEntity
  8
0
  6
Continuous
 62
     7
370
    25
100
AcDbLine
 10
244.6540612388
 20
-795.3118095317
 30
0.0
 11
468.1540612388
 21
-795.3118095317
 31
0.0
  0
ARC
  5
CF
330
1F
100
AcDbEntity
  8
0
  6
Continuous
 62
     7
370
    25
100
AcDbCircle
 10
67.1540612388
 20
-617.8118095317
 30
0.0
 40
177.5
100
AcDbArc
 50
90.0
 51
270.0
  0
LINE
  5
D0
330
1F
100
AcDbEntity
  8
0
  6
Continuous
 62
     7
370
    25
100
AcDbLine
 10
468.1540612388
 20
-440.3118095317
 30
0.0
 11
468.1540612388
 21
-795.3118095317
 31
0.0
  0
LINE
  5
D1
330
1F
100
AcDbEntity
  8
0
  6
Continuous
 62
     1
370
    25
100
AcDbLine
 10
244.6540612388
 20
-440.3118095317
 30
0.0
 11
244.6540612388
 21
-795.3118095317
 31
0.0
  0
INSERT
  5
DD
330
1F
100
AcDbEntity
  8
FORMAT
 62
     7
100
AcDbBlockReference
  2
SW_CENTERMARKSYMBOL_3
 10
67.1540612388
 20
-617.8118095317
 30
0.0
  0
LINE
  5
DE
330
1F
100
AcDbEntity
  8
0
  6
Continuous
 62
     7
370
    25
100
AcDbLine
 10
1008.6103197844
 20
-286.7907049524
 30
0.0
 11
850.5719541892
 21
-378.0243114486
 31
0.0
  0
LINE
  5
DF
330
1F
100
AcDbEntity
  8
0
  6
Continuous
 62
     7
370
    25
100
AcDbLine
 10
1028.0575292321
 20
-685.4716575937
 30
0.0
 11
1186.0958948273
 21
-594.2380510975
 31
0.0
  0
LINE
  5
E0
330
1F
100
AcDbEntity
  8
0
  6
Continuous
 62
     7
370
    25
100
AcDbLine
 10
636.30328805
 20
-749.1401985551
 30
0.0
 11
636.30328805
 21
-931.6370700116
 31
0.0
  0
LINE
  5
E1
330
1F
100
AcDbEntity
  8
0
  6
Continuous
 62
     7
370
    25
100
AcDbLine
 10
991.30328805
 20
-931.6370700116
 30
0.0
 11
991.30328805
 21
-749.1401985551
 31
0.0
  0
SPLINE
  5
E2
330
1F
100
AcDbEntity
  8
0
  6
Continuous
 62
     7
370
    25
100
AcDbSpline
210
0.0
220
0.0
230
1.0
 70
     8
 71
     3
 72
    50
 73
    46
 74
     0
 42
0.00000001
 43
0.00000001
 40
0.0
 40
0.0
 40
0.0
 40
0.0
 40
0.0152783760929784
 40
0.038794925278636
 40
0.062352323374839
 40
0.0860004687495035
 40
0.1097158392828441
 40
0.1334760935245895
 40
0.1572592287654146
 40
0.1810421259849095
 40
0.2048098617129432
 40
0.2285505358217935
 40
0.2522553127327171
 40
0.2759182902707158
 40
0.2995362656794172
 40
0.3231084417177312
 40
0.3466361080824881
 40
0.370122324034983
 40
0.3935716191086367
 40
0.4169897211971283
 40
0.4403833155171327
 40
0.4637598338216969
 40
0.4871272705099012
 40
0.510494020578498
 40
0.5338687333604145
 40
0.5572574194326737
 40
0.5806687060177019
 40
0.6041112628841702
 40
0.6275934999417326
 40
0.6511234037055408
 40
0.6747083500697477
 40
0.6983548868840349
 40
0.7220684809805593
 40
0.7458532263938888
 40
0.7697115139987012
 40
0.7936436681181105
 40
0.8176475631968907
 40
0.8417182434480887
 40
0.8658475799083535
 40
0.8900240110305011
 40
0.9142324220010728
 40
0.9384486317288013
 40
0.9626486443472717
 40
0.9868075465047716
 40
1.0
 40
1.0
 40
1.0
 40
1.0
 10
850.5719541891704
 20
-378.0243114485604
 30
0.0
 10
848.6707643762376
 20
-379.1363331742697
 30
0.0
 10
843.8432541562786
 20
-381.9599840318329
 30
0.0
 10
836.1976663856549
 20
-386.7363608113714
 30
0.0
 10
827.6502006272007
 20
-392.3998088061489
 30
0.0
 10
819.2155426872332
 20
-398.3395317131509
 30
0.0
 10
810.8945556547621
 20
-404.5458801375608
 30
0.0
 10
802.6995050796066
 20
-411.0093108838784
 30
0.0
 10
794.6414028759613
 20
-417.7175622063504
 30
0.0
 10
786.7303080147415
 20
-424.6586774149996
 30
0.0
 10
778.9748330769694
 20
-431.8207944157595
 30
0.0
 10
771.3818897832318
 20
-439.1929350727098
 30
0.0
 10
763.9573477470441
 20
-446.7646052487671
 30
0.0
 10
756.70615371524
 20
-454.5259049625378
 30
0.0
 10
749.6324704875863
 20
-462.4675738950088
 30
0.0
 10
742.739826570667
 20
-470.5810030022649
 30
0.0
 10
736.031262644082
 20
-478.858216972076
 30
0.0
 10
729.5094678121492
 20
-487.2918380907903
 30
0.0
 10
723.1769012348256
 20
-495.8750387811295
 30
0.0
 10
717.0358976162772
 20
-504.6014886849935
 30
0.0
 10
711.0887568385793
 20
-513.4653002264988
 30
0.0
 10
705.3378192044764
 20
-522.4609750267988
 30
0.0
 10
699.7855283486808
 20
-531.5833522300368
 30
0.0
 10
694.4344840978132
 20
-540.8275587323445
 30
0.0
 10
689.2876896855068
 20
-550.1885927490023
 30
0.0
 10
684.3483599943818
 20
-559.661607393519
 30
0.0
 10
679.6199380676309
 20
-569.2418905291439
 30
0.0
 10
675.1059589505696
 20
-578.925204519479
 30
0.0
 10
670.8102727635271
 20
-588.7073815572976
 30
0.0
 10
666.7370833557081
 20
-598.5842337449645
 30
0.0
 10
662.8909729445522
 20
-608.5514724200765
 30
0.0
 10
659.2769224537246
 20
-618.6046129578968
 30
0.0
 10
655.9003254547574
 20
-628.7388627131916
 30
0.0
 10
652.7669925228787
 20
-638.9489906466423
 30
0.0
 10
649.8831422804669
 20
-649.2291786567017
 30
0.0
 10
647.2553727009922
 20
-659.5728571621875
 30
0.0
 10
644.890612245227
 20
-669.9725301483743
 30
0.0
 10
642.7960254297159
 20
-680.419601587863
 30
0.0
 10
640.9789416777614
 20
-690.9042109381046
 30
0.0
 10
639.4465288794553
 20
-701.4151244221594
 30
0.0
 10
638.2063414949549
 20
-711.9387943218421
 30
0.0
 10
637.2635264454316
 20
-722.4600943610103
 30
0.0
 10
636.6294890661864
 20
-732.9618035923762
 30
0.0
 10
636.3395474176133
 20
-741.8543445531992
 30
0.0
 10
636.3127521174972
 20
-747.2385158027953
 30
0.0
 10
636.303288050009
 20
-749.1401985551174
 30
0.0
  0
SPLINE
  5
E3
330
1F
100
AcDbEntity
  8
0
  6
Continuous
 62
     7
370
    25
100
AcDbSpline
210
0.0
220
0.0
230
1.0
 70
     8
 71
     3
 72
    43
 73
    39
 74
     0
 42
0.00000001
 43
0.00000001
 40
0.0
 40
0.0
 40
0.0
 40
0.0
 40
0.0087836510697897
 40
0.0391599815246889
 40
0.0687512099058287
 40
0.0977036588807014
 40
0.1261545949775153
 40
0.154230632555585
 40
0.1820463413098539
 40
0.2097030537658132
 40
0.237287903047123
 40
0.2648731419705432
 40
0.2925136313568192
 40
0.3202383525222329
 40
0.3480792902894917
 40
0.376054324070858
 40
0.4041685351727239
 40
0.4324157730706316
 40
0.4607805296865224
 40
0.4892400647837762
 40
0.5177667238399127
 40
0.546329103302189
 40
0.5748881211434292
 40
0.6034172768419988
 40
0.6318961698142405
 40
0.6603129365339645
 40
0.6886665238927526
 40
0.7169687152822426
 40
0.7452458279907538
 40
0.7735400052375718
 40
0.8019048709731412
 40
0.8303970131955495
 40
0.8591025799366161
 40
0.8881237326399544
 40
0.9175775132552627
 40
0.9475944614310855
 40
0.9783169661270398
 40
1.0
 40
1.0
 40
1.0
 40
1.0
 10
991.3020732818627
 20
-749.282858814295
 30
0.0
 10
991.3018695238889
 20
-749.2920895022614
 30
0.0
 10
991.3009611136586
 20
-749.333242499728
 30
0.0
 10
991.3107120752683
 20
-749.1070366368596
 30
0.0
 10
991.3549803731082
 20
-748.5968473440103
 30
0.0
 10
991.4496738543736
 20
-747.7818101907272
 30
0.0
 10
991.6090660929466
 20
-746.700862549991
 30
0.0
 10
991.8469951823961
 20
-745.3590460006593
 30
0.0
 10
992.1757593672648
 20
-743.7712224979692
 30
0.0
 10
992.6063584058493
 20
-741.9510241744738
 30
0.0
 10
993.1483062670899
 20
-739.9141082453481
 30
0.0
 10
993.809470955383
 20
-737.677691397943
 30
0.0
 10
994.5957496038625
 20
-735.2612947588532
 30
0.0
 10
995.5109365255979
 20
-732.6863760549454
 30
0.0
 10
996.5565790982804
 20
-729.9761789287518
 30
0.0
 10
997.732019671297
 20
-727.1551829147679
 30
0.0
 10
999.0340704882481
 20
-724.249457998249
 30
0.0
 10
1000.456909080421
 20
-721.2863883930629
 30
0.0
 10
1001.992035063437
 20
-718.2943052517344
 30
0.0
 10
1003.628297485969
 20
-715.3020434494064
 30
0.0
 10
1005.351970341138
 20
-712.3384888710195
 30
0.0
 10
1007.146759760478
 20
-709.4323076277676
 30
0.0
 10
1008.994235081458
 20
-706.6110289059403
 30
0.0
 10
1010.87421845771
 20
-703.9004223114849
 30
0.0
 10
1012.765363407668
 20
-701.3237750565179
 30
0.0
 10
1014.645355466282
 20
-698.9018053931322
 30
0.0
 10
1016.49130613278
 20
-696.6523548487778
 30
0.0
 10
1018.280128117222
 20
-694.590178267037
 30
0.0
 10
1019.988870462941
 20
-692.7268383757088
 30
0.0
 10
1021.594882511781
 20
-691.070813006802
 30
0.0
 10
1023.075821527693
 20
-689.6277458745056
 30
0.0
 10
1024.410058001637
 20
-688.400225096806
 30
0.0
 10
1025.577214614959
 20
-687.3876755913819
 30
0.0
 10
1026.556959638634
 20
-686.587377442696
 30
0.0
 10
1027.333537964467
 20
-685.9918864457137
 30
0.0
 10
1027.876787677669
 20
-685.60112104703
 30
0.0
 10
1028.177940864508
 20
-685.401087050991
 30
0.0
 10
1028.178884878198
 20
-685.4008307643923
 30
0.0
 10
1028.179275468226
 20
-685.4007247246273
 30
0.0
  0
LWPOLYLINE
  5
E4
330
1F
100
AcDbEntity
  8
0
  6
Continuous
 62
     7
370
    25
100
AcDbPolyline
 90
      142
 70
   128
 43
0.0
 10
971.8416536452
 20
-368.0581581007
 10
971.9662493319
 20
-374.5865278603
 10
972.3397890187
 20
-381.2457912638
 10
972.9615310772
 20
-388.0227269602
 10
973.8302410961
 20
-394.9038799709
 10
974.944194332
 20
-401.8755884036
 10
976.3011791339
 20
-408.9240105765
 10
977.8985013341
 20
-416.0351524998
 10
979.7329895972
 20
-423.1948956595
 10
981.8010017166
 20
-430.3890250483
 10
984.0984318456
 20
-437.6032573881
 10
986.6207186494
 20
-444.8232694885
 10
989.362854361
 20
-452.0347266838
 10
992.3193947238
 20
-459.2233112932
 10
995.4844698005
 20
-466.3747510473
 10
998.8517956275
 20
-473.4748474246
 10
1002.4146866912
 20
-480.5095038408
 10
1006.1660692011
 20
-487.4647536369
 10
1010.0984951345
 20
-494.3267878081
 10
1014.2041570237
 20
-501.0819824208
 10
1018.474903457
 20
-507.7169256614
 10
1022.9022552628
 20
-514.2184444642
 10
1027.4774223438
 20
-520.5736306655
 10
1032.1913211293
 20
-526.7698666313
 10
1037.0345926096
 20
-532.7948503086
 10
1041.9976209174
 20
-538.6366196501
 10
1047.0705524196
 20
-544.2835763635
 10
1052.2433152801
 20
-549.724508939
 10
1057.5056394571
 20
-554.9486149084
 10
1062.847077093
 20
-559.9455222931
 10
1068.2570232579
 20
-564.7053101959
 10
1073.7247370044
 20
-569.2185284985
 10
1079.2393626931
 20
-573.4762166238
 10
1084.7899515449
 20
-577.4699213261
 10
1090.3654833796
 20
-581.1917134744
 10
1095.9548884948
 20
-584.6342037948
 10
1101.5470696441
 20
-587.7905575416
 10
1107.1309240693
 20
-590.6545080664
 10
1112.6953655444
 20
-593.2203692607
 10
1118.229346386
 20
-595.4830468445
 10
1123.7218793872
 20
-597.438048481
 10
1129.1620596323
 20
-599.0814926953
 10
1134.5390861469
 20
-600.4101165811
 10
1139.8422833426
 20
-601.4212822787
 10
1145.0611222123
 20
-602.1129822121
 10
1150.1852412345
 20
-602.4838430752
 10
1155.2044669451
 20
-602.533128558
 10
1160.1088341361
 20
-602.2607408088
 10
1164.8886056405
 20
-601.6672206283
 10
1169.5342916643
 20
-600.7537463958
 10
1174.0366686279
 20
-599.5221317299
 10
1178.3867974787
 20
-597.9748218874
 10
1182.5760414386
 20
-596.1148889088
 10
1186.5960831513
 20
-593.946025519
 10
1190.4389411961
 20
-591.4725377954
 10
1194.0969859343
 20
-588.6993366189
 10
1197.5629546564
 20
-585.6319279238
 10
1200.8299660025
 20
-582.2764017661
 10
1203.891533624
 20
-578.6394202323
 10
1206.7415790616
 20
-574.7282042127
 10
1209.3744438141
 20
-570.5505190647
 10
1211.7849005721
 20
-566.1146591953
 10
1213.9681635969
 20
-561.4294315938
 10
1215.9198982218
 20
-556.5041383458
 10
1217.6362294584
 20
-551.3485581653
 10
1219.1137496899
 20
-545.9729269793
 10
1220.3495254367
 20
-540.3879176062
 10
1221.3411031803
 20
-534.6046185649
 10
1222.0865142351
 20
-528.6345120605
 10
1222.5842786562
 20
-522.4894511867
 10
1222.8334081786
 20
-516.1816363931
 10
1222.8334081786
 20
-509.7235912621
 10
1222.5842786562
 20
-503.1281376446
 10
1222.0865142351
 20
-496.4083702031
 10
1221.3411031803
 20
-489.5776304139
 10
1220.3495254367
 20
-482.6494800787
 10
1219.1137496899
 20
-475.6376743985
 10
1217.6362294584
 20
-468.5561346646
 10
1215.9198982218
 20
-461.4189206185
 10
1213.9681635969
 20
-454.2402025381
 10
1211.7849005721
 20
-447.0342331036
 10
1209.3744438141
 20
-439.8153191004
 10
1206.7415790616
 20
-432.597793014
 10
1203.891533624
 20
-425.3959845744
 10
1200.8299660025
 20
-418.2241923055
 10
1197.5629546564
 20
-411.096655137
 10
1194.0969859343
 20
-404.0275241344
 10
1190.4389411961
 20
-397.0308344027
 10
1186.5960831513
 20
-390.1204772219
 10
1182.5760414386
 20
-383.3101724664
 10
1178.3867974787
 20
-376.6134413661
 10
1174.0366686279
 20
-370.0435796605
 10
1169.5342916643
 20
-363.6136312019
 10
1164.8886056405
 20
-357.3363620579
 10
1160.1088341361
 20
-351.2242351653
 10
1155.2044669451
 20
-345.2893855862
 10
1150.1852412345
 20
-339.5435964152
 10
1145.0611222123
 20
-333.9982753848
 10
1139.8422833426
 20
-328.6644322166
 10
1134.5390861469
 20
-323.5526567624
 10
1129.1620596323
 20
-318.6730979793
 10
1123.7218793872
 20
-314.0354437796
 10
1118.229346386
 20
-309.6489017964
 10
1112.6953655444
 20
-305.5221811028
 10
1107.1309240693
 20
-301.6634749206
 10
1101.5470696441
 20
-298.080444354
 10
1095.9548884948
 20
-294.7802031783
 10
1090.3654833796
 20
-291.769303717
 10
1084.7899515449
 20
-289.0537238322
 10
1079.2393626931
 20
-286.6388550564
 10
1073.7247370044
 20
-284.5294918882
 10
1068.2570232579
 20
-282.7298222727
 10
1062.847077093
 20
-281.2434192874
 10
1057.505639457
 20
-280.0732340478
 10
1052.2433152801
 20
-279.2215898485
 10
1047.0705524196
 20
-278.6901775501
 10
1041.9976209174
 20
-278.4800522227
 10
1037.0345926096
 20
-278.5916310505
 10
1032.1913211293
 20
-279.0246925041
 10
1027.4774223438
 20
-279.7783767801
 10
1022.9022552628
 20
-280.8511875082
 10
1018.474903457
 20
-282.2409947219
 10
1014.2041570237
 20
-283.9450390877
 10
1010.0984951345
 20
-285.9599373832
 10
1006.1660692011
 20
-288.2816892144
 10
1002.4146866912
 20
-290.9056849578
 10
998.8517956275
 20
-293.8267149129
 10
995.4844698005
 20
-297.0389796451
 10
992.3193947238
 20
-300.5361015
 10
989.362854361
 20
-304.311137266
 10
986.6207186494
 20
-308.3565919589
 10
984.0984318456
 20
-312.6644337029
 10
981.8010017166
 20
-317.2261096771
 10
979.7329895972
 20
-322.0325630959
 10
977.8985013341
 20
-327.0742511911
 10
976.3011791339
 20
-332.3411641576
 10
974.944194332
 20
-337.8228450272
 10
973.8302410961
 20
-343.5084104301
 10
972.9615310772
 20
-349.3865722023
 10
972.3397890187
 20
-355.4456597977
 10
971.9662493319
 20
-361.6736434589
 10
971.8416536452
 20
-368.0581581007
  0
LWPOLYLINE
  5
E5
330
1F
100
AcDbEntity
  8
0
  6
Continuous
 62
     7
370
    25
100
AcDbPolyline
 90
      133
 70
   128
 43
0.0
 10
986.7616067282
 20
-376.6712636804
 10
986.8868693876
 20
-370.6670333603
 10
987.2623736056
 20
-364.821029741
 10
987.8872687443
 20
-359.1464959012
 10
988.7601392153
 20
-353.6562864851
 10
989.8790076863
 20
-348.3628385829
 10
991.2413395601
 20
-343.2781435565
 10
992.8440487171
 20
-338.4137198757
 10
994.6835045055
 20
-333.7805870247
 10
996.7555399662
 20
-329.3892405395
 10
999.0554612725
 20
-325.2496282323
 10
1001.578058363
 20
-321.3711276564
 10
1004.3176167438
 20
-317.7625248631
 10
1007.2679304342
 20
-314.4319944985
 10
1010.4223160246
 20
-311.3870812849
 10
1013.7736278171
 20
-308.6346829301
 10
1017.3142740127
 20
-306.1810345017
 10
1021.0362339089
 20
-304.0316943026
 10
1024.9310760695
 20
-302.1915312795
 10
1028.9899774242
 20
-300.6647139937
 10
1033.2037432559
 20
-299.4547011773
 10
1037.5628280299
 20
-298.5642338986
 10
1042.057357017
 20
-297.9953293523
 10
1046.6771486635
 20
-297.7492762902
 10
1051.4117376555
 20
-297.8266321016
 10
1056.250398626
 20
-298.2272215508
 10
1061.1821704517
 20
-298.9501371738
 10
1066.1958810832
 20
-299.9937413341
 10
1071.2801728533
 20
-301.3556699328
 10
1076.4235282058
 20
-303.0328377635
 10
1081.6142957867
 20
-305.0214455017
 10
1086.8407168378
 20
-307.3169883111
 10
1092.0909518345
 20
-309.914266049
 10
1097.3531073058
 20
-312.807395046
 10
1102.6152627771
 20
-315.9898214344
 10
1107.8654977738
 20
-319.4543359947
 10
1113.0919188249
 20
-323.1930904873
 10
1118.2826864058
 20
-327.1976154306
 10
1123.4260417584
 20
-331.4588392878
 10
1128.5103335285
 20
-335.9671090162
 10
1133.5240441599
 20
-340.7122119348
 10
1138.4558159856
 20
-345.6833988594
 10
1143.2944769561
 20
-350.8694084526
 10
1148.0290659481
 20
-356.2584927348
 10
1152.6488575946
 20
-361.8384436968
 10
1157.1433865817
 20
-367.5966209548
 10
1161.5024713557
 20
-373.5199803855
 10
1165.7162371875
 20
-379.5951036745
 10
1169.7751385422
 20
-385.8082287136
 10
1173.6699807027
 20
-392.1452807762
 10
1177.3919405989
 20
-398.5919044013
 10
1180.9325867945
 20
-405.1334959128
 10
1184.2838985871
 20
-411.7552365019
 10
1187.4382841775
 20
-418.4421257966
 10
1190.3885978678
 20
-425.1790158417
 10
1193.1281562486
 20
-431.9506454146
 10
1195.6507533391
 20
-438.7416745962
 10
1197.9506746454
 20
-445.5367195212
 10
1200.0227101062
 20
-452.3203872274
 10
1201.8621658945
 20
-459.0773105255
 10
1203.4648750515
 20
-465.792182811
 10
1204.8272069254
 20
-472.4497927385
 10
1205.9460753963
 20
-479.0350586802
 10
1206.8189458673
 20
-485.5330628906
 10
1207.443841006
 20
-491.9290853003
 10
1207.819345224
 20
-498.2086368612
 10
1207.9446078834
 20
-504.3574923695
 10
1207.819345224
 20
-510.3617226896
 10
1207.443841006
 20
-516.2077263088
 10
1206.8189458673
 20
-521.8822601486
 10
1205.9460753963
 20
-527.3724695647
 10
1204.8272069254
 20
-532.665917467
 10
1203.4648750515
 20
-537.7506124934
 10
1201.8621658945
 20
-542.6150361742
 10
1200.0227101062
 20
-547.2481690252
 10
1197.9506746454
 20
-551.6395155104
 10
1195.6507533391
 20
-555.7791278176
 10
1193.1281562486
 20
-559.6576283935
 10
1190.3885978678
 20
-563.2662311867
 10
1187.4382841775
 20
-566.5967615514
 10
1184.2838985871
 20
-569.641674765
 10
1180.9325867945
 20
-572.3940731198
 10
1177.3919405989
 20
-574.8477215482
 10
1173.6699807027
 20
-576.9970617473
 10
1169.7751385422
 20
-578.8372247704
 10
1165.7162371875
 20
-580.3640420562
 10
1161.5024713557
 20
-581.5740548726
 10
1157.1433865817
 20
-582.4645221513
 10
1152.6488575946
 20
-583.0334266976
 10
1148.0290659481
 20
-583.2794797597
 10
1143.2944769561
 20
-583.2021239483
 10
1138.4558159856
 20
-582.8015344991
 10
1133.5240441599
 20
-582.0786188761
 10
1128.5103335285
 20
-581.0350147157
 10
1123.4260417584
 20
-579.673086117
 10
1118.2826864058
 20
-577.9959182863
 10
1113.0919188249
 20
-576.0073105482
 10
1107.8654977738
 20
-573.7117677388
 10
1102.6152627771
 20
-571.1144900009
 10
1097.3531073058
 20
-568.2213610039
 10
1092.0909518345
 20
-565.0389346155
 10
1086.8407168378
 20
-561.5744200552
 10
1081.6142957867
 20
-557.8356655626
 10
1076.4235282058
 20
-553.8311406192
 10
1071.2801728533
 20
-549.5699167621
 10
1066.1958810832
 20
-545.0616470337
 10
1061.1821704517
 20
-540.3165441151
 10
1056.250398626
 20
-535.3453571905
 10
1051.4117376555
 20
-530.1593475973
 10
1046.6771486635
 20
-524.770263315
 10
1042.057357017
 20
-519.1903123531
 10
1037.5628280299
 20
-513.432135095
 10
1033.2037432559
 20
-507.5087756644
 10
1028.9899774242
 20
-501.4336523754
 10
1024.9310760695
 20
-495.2205273363
 10
1021.0362339089
 20
-488.8834752737
 10
1017.3142740127
 20
-482.4368516486
 10
1013.7736278171
 20
-475.8952601371
 10
1010.4223160246
 20
-469.2735195479
 10
1007.2679304342
 20
-462.5866302533
 10
1004.3176167438
 20
-455.8497402082
 10
1001.578058363
 20
-449.0781106353
 10
999.0554612725
 20
-442.2870814537
 10
996.7555399662
 20
-435.4920365287
 10
994.6835045055
 20
-428.7083688225
 10
992.8440487171
 20
-421.9514455244
 10
991.2413395601
 20
-415.2365732389
 10
989.8790076863
 20
-408.5789633114
 10
988.7601392153
 20
-401.9936973697
 10
987.8872687443
 20
-395.4956931593
 10
987.2623736056
 20
-389.0996707496
 10
986.8868693876
 20
-382.8201191887
 10
986.7616067282
 20
-376.6712636804
  0
LWPOLYLINE
  5
E6
330
1F
100
AcDbEntity
  8
0
  6
Continuous
 62
     7
370
    25
100
AcDbPolyline
 90
      142
 70
   128
 43
0.0
 10
688.2918343894
 20
-859.1808500873
 10
694.0075701587
 20
-856.02508118
 10
699.9611492371
 20
-853.0194328774
 10
706.1407513444
 20
-850.1698726163
 10
712.5341074525
 20
-847.4820579345
 10
719.1285241449
 20
-844.9613252395
 10
725.9109088174
 20
-842.6126792127
 10
732.8677956732
 20
-840.4407828733
 10
739.9853724574
 20
-838.4499483205
 10
747.2495078801
 20
-836.644128172
 10
754.6457796727
 20
-835.0269077165
 10
762.1595032224
 20
-833.6014977957
 10
769.7757607265
 20
-832.3707284288
 10
777.4794308107
 20
-831.3370431947
 10
785.2552185512
 20
-830.5024943795
 10
793.0876858411
 20
-829.8687389029
 10
800.9612820417
 20
-829.4370350275
 10
808.8603748565
 20
-829.2082398615
 10
816.7692813679
 20
-829.1828076565
 10
824.6722991741
 20
-829.3607889058
 10
832.5537375648
 20
-829.741830244
 10
840.3979486737
 20
-830.325175149
 10
848.1893585455
 20
-831.1096654433
 10
855.9124980574
 20
-832.0937435942
 10
863.5520336305
 20
-833.2754558055
 10
871.0927976743
 20
-834.652455897
 10
878.5198186997
 20
-836.2220099625
 10
885.818351044
 20
-837.9810017977
 10
892.9739041467
 20
-839.9259390871
 10
899.9722713195
 20
-842.0529603378
 10
906.7995579522
 20
-844.3578425459
 10
913.4422090992
 20
-846.8360095813
 10
919.8870363914
 20
-849.4825412725
 10
926.1212442209
 20
-852.292183176
 10
932.1324551451
 20
-855.2593570078
 10
937.908734461
 20
-858.3781717188
 10
943.4386139009
 20
-861.6424351913
 10
948.7111144009
 20
-865.0456665322
 10
953.7157678993
 20
-868.5811089408
 10
958.4426381199
 20
-872.2417431232
 10
962.8823402995
 20
-876.0203012294
 10
967.0260598201
 20
-879.9092812818
 10
970.8655697104
 20
-883.9009620706
 10
974.3932469789
 20
-887.987418483
 10
977.6020877488
 20
-892.1605372382
 10
980.4857211638
 20
-896.412032995
 10
983.0384220368
 20
-900.7334648023
 10
985.2551222163
 20
-905.1162528571
 10
987.1314206495
 20
-909.5516955395
 10
988.6635921194
 20
-914.0309866886
 10
989.8485946414
 20
-918.5452330865
 10
990.6840755027
 20
-923.0854721147
 10
991.1683759334
 20
-927.6426895489
 10
991.3005343998
 20
-932.2078374559
 10
991.0802885135
 20
-936.7718521569
 10
990.5080755523
 20
-941.3256722233
 10
989.585031592
 20
-945.8602564667
 10
988.3129892512
 20
-950.3666018901
 10
986.6944740519
 20
-954.8357615616
 10
984.7326994065
 20
-959.2588623784
 10
982.4315602367
 20
-963.6271226832
 10
979.7956252415
 20
-967.9318696996
 10
976.8301278258
 20
-972.1645567508
 10
973.5409557102
 20
-976.3167802285
 10
969.9346392415
 20
-980.3802962774
 10
966.0183384272
 20
-984.3470371623
 10
961.7998287201
 20
-988.2091272866
 10
957.2874855807
 20
-991.9588988276
 10
952.4902678486
 20
-995.5889069613
 10
947.4176999556
 20
-999.0919446423
 10
942.0798530157
 20
-1002.4610569137
 10
936.4873248299
 20
-1005.6895547148
 10
930.6512188452
 20
-1008.7710281622
 10
924.58312211
 20
-1011.6993592756
 10
918.2950822684
 20
-1014.4687341245
 10
911.7995836417
 20
-1017.0736543716
 10
905.109522441
 20
-1019.5089481888
 10
898.2381811637
 20
-1021.7697805258
 10
891.1992022217
 20
-1023.851662709
 10
884.0065608563
 20
-1025.7504613543
 10
876.674537391
 20
-1027.4624065726
 10
869.2176888798
 20
-1028.9840994552
 10
861.6508202052
 20
-1030.3125188217
 10
853.9889546844
 20
-1031.4450272184
 10
846.2473042423
 20
-1032.3793761547
 10
838.4412392092
 20
-1033.1137105674
 10
830.5862578047
 20
-1033.6465725033
 10
822.6979553672
 20
-1033.9769040145
 10
814.7919933911
 20
-1034.1040492583
 10
806.8840684321
 20
-1034.0277557996
 10
798.9898809432
 20
-1033.748175112
 10
791.1251041028
 20
-1033.2658622771
 10
783.3053526975
 20
-1032.5817748824
 10
775.5461521198
 20
-1031.69727112
 10
767.8629075443
 20
-1030.6141070903
 10
760.2708733418
 20
-1029.3344333153
 10
752.7851227935
 20
-1027.8607904687
 10
745.4205181643
 20
-1026.196104332
 10
738.1916811948
 20
-1024.3436799855
 10
731.1129640718
 20
-1022.3071952463
 10
724.1984209329
 20
-1020.0906933662
 10
717.4617799634
 20
-1017.6985750045
 10
710.9164161404
 20
-1015.135589491
 10
704.5753246779
 20
-1012.406825396
 10
698.4510952261
 20
-1009.5177004281
 10
692.5558868757
 20
-1006.4739506775
 10
686.901404017
 20
-1003.2816192276
 10
681.4988731026
 20
-999.9470441569
 10
676.3590203573
 20
-996.4768459556
 10
671.4920504831
 20
-992.8779143811
 10
666.9076263981
 20
-989.1573947787
 10
662.614850052
 20
-985.3226738959
 10
658.6222443549
 20
-981.381365216
 10
654.9377362558
 20
-977.3412938424
 10
651.5686410045
 20
-973.2104809631
 10
648.5216476278
 20
-968.9971279245
 10
645.8028056489
 20
-964.7095999491
 10
643.417513077
 20
-960.3564095269
 10
641.3705056896
 20
-955.9461995145
 10
639.6658476304
 20
-951.4877259756
 10
638.3069233403
 20
-946.9898407967
 10
637.2964308376
 20
-942.4614741126
 10
636.6363763617
 20
-937.9116165761
 10
636.3280703895
 20
-933.3493015081
 10
636.3721250341
 20
-928.7835869631
 10
636.7684528291
 20
-924.2235377445
 10
637.5162669023
 20
-919.6782074079
 10
638.6140825381
 20
-915.1566202862
 10
640.0597201251
 20
-910.6677535718
 10
641.8503094838
 20
-906.2205194942
 10
643.9822955647
 20
-901.823747625
 10
646.4514455068
 20
-897.4861673478
 10
649.2528570415
 20
-893.2163905266
 10
652.3809682254
 20
-889.0228944082
 10
655.8295684834
 20
-884.9140047909
 10
659.5918109388
 20
-880.8978794946
 10
663.6602260075
 20
-876.9824921645
 10
668.026736228
 20
-873.1756164397
 10
672.6826722984
 20
-869.4848105194
 10
677.6187902887
 20
-865.9174021573
 10
682.8252899934
 20
-862.4804741125
 10
688.2918343894
 20
-859.1808500873
  0
LWPOLYLINE
  5
E7
330
1F
100
AcDbEntity
  8
0
  6
Continuous
 62
     7
370
    25
100
AcDbPolyline
 90
      133
 70
   128
 43
0.0
 10
703.2117874724
 20
-867.793955667
 10
698.0748946605
 20
-870.9040459538
 10
693.2001638818
 20
-874.1517160738
 10
688.5986379694
 20
-877.5296090097
 10
684.2807408596
 20
-881.0300727476
 10
680.2562539779
 20
-884.6451776112
 10
676.5342940817
 20
-888.3667342253
 10
673.1232926072
 20
-892.1863120672
 10
670.0309765698
 20
-896.0952585645
 10
667.26435106
 20
-900.0847186962
 10
664.8296833744
 20
-904.145655052
 10
662.7324888184
 20
-908.2688683048
 10
660.9775182121
 20
-912.4450180504
 10
659.5687471285
 20
-916.6646439666
 10
658.5093668871
 20
-920.9181872434
 10
657.801777325
 20
-925.1960122373
 10
657.44758136
 20
-929.4884282986
 10
657.44758136
 20
-933.7857117245
 10
657.801777325
 20
-938.0781277859
 10
658.5093668871
 20
-942.3559527797
 10
659.5687471285
 20
-946.6094960565
 10
660.9775182121
 20
-950.8291219727
 10
662.7324888184
 20
-955.0052717184
 10
664.8296833744
 20
-959.1284849712
 10
667.26435106
 20
-963.1894213269
 10
670.0309765698
 20
-967.1788814586
 10
673.1232926072
 20
-971.087827956
 10
676.5342940817
 20
-974.9074057978
 10
680.2562539779
 20
-978.6289624119
 10
684.2807408596
 20
-982.2440672756
 10
688.5986379694
 20
-985.7445310135
 10
693.2001638818
 20
-989.1224239494
 10
698.0748946605
 20
-992.3700940694
 10
703.2117874724
 20
-995.4801843561
 10
708.5992056031
 20
-998.4456494547
 10
714.2249448178
 20
-1001.259771633
 10
720.0762610076
 20
-1003.9161759991
 10
726.1398990595
 20
-1006.4088449427
 10
732.402122883
 20
-1008.7321317669
 10
738.848746527
 20
-1010.8807734798
 10
745.4651663154
 20
-1012.849902717
 10
752.2363939295
 20
-1014.6350587672
 10
759.1470903607
 20
-1016.232197678
 10
766.181600659
 20
-1017.6377014159
 10
773.323989396
 20
-1018.8483860629
 10
780.5580767639
 20
-1019.861509029
 10
787.8674752282
 20
-1020.6747752647
 10
795.2356266504
 20
-1021.2863424605
 10
802.6458397977
 20
-1021.6948252199
 10
810.0813281538
 20
-1021.8992981982
 10
817.5252479462
 20
-1021.8992981982
 10
824.9607363024
 20
-1021.6948252199
 10
832.3709494496
 20
-1021.2863424605
 10
839.7391008718
 20
-1020.6747752647
 10
847.0484993361
 20
-1019.861509029
 10
854.282586704
 20
-1018.8483860629
 10
861.424975441
 20
-1017.6377014159
 10
868.4594857393
 20
-1016.232197678
 10
875.3701821705
 20
-1014.6350587672
 10
882.1414097846
 20
-1012.849902717
 10
888.757829573
 20
-1010.8807734798
 10
895.204453217
 20
-1008.7321317669
 10
901.4666770405
 20
-1006.4088449427
 10
907.5303150924
 20
-1003.9161759991
 10
913.3816312822
 20
-1001.259771633
 10
919.0073704969
 20
-998.4456494547
 10
924.3947886276
 20
-995.4801843561
 10
929.5316814395
 20
-992.3700940694
 10
934.4064122182
 20
-989.1224239494
 10
939.0079381306
 20
-985.7445310135
 10
943.3258352405
 20
-982.2440672756
 10
947.3503221221
 20
-978.6289624119
 10
951.0722820183
 20
-974.9074057978
 10
954.4832834928
 20
-971.087827956
 10
957.5755995302
 20
-967.1788814586
 10
960.34222504
 20
-963.1894213269
 10
962.7768927256
 20
-959.1284849712
 10
964.8740872816
 20
-955.0052717184
 10
966.6290578879
 20
-950.8291219727
 10
968.0378289715
 20
-946.6094960565
 10
969.0972092129
 20
-942.3559527797
 10
969.8047987751
 20
-938.0781277859
 10
970.15899474
 20
-933.7857117245
 10
970.15899474
 20
-929.4884282986
 10
969.8047987751
 20
-925.1960122373
 10
969.0972092129
 20
-920.9181872434
 10
968.0378289715
 20
-916.6646439666
 10
966.6290578879
 20
-912.4450180504
 10
964.8740872816
 20
-908.2688683048
 10
962.7768927256
 20
-904.145655052
 10
960.34222504
 20
-900.0847186962
 10
957.5755995302
 20
-896.0952585645
 10
954.4832834928
 20
-892.1863120672
 10
951.0722820183
 20
-888.3667342253
 10
947.3503221221
 20
-884.6451776112
 10
943.3258352405
 20
-881.0300727476
 10
939.0079381306
 20
-877.5296090097
 10
934.4064122182
 20
-874.1517160738
 10
929.5316814395
 20
-870.9040459538
 10
924.3947886276
 20
-867.793955667
 10
919.0073704969
 20
-864.8284905684
 10
913.3816312822
 20
-862.0143683902
 10
907.5303150924
 20
-859.3579640241
 10
901.4666770405
 20
-856.8652950805
 10
895.204453217
 20
-854.5420082563
 10
888.757829573
 20
-852.3933665433
 10
882.1414097846
 20
-850.4242373062
 10
875.3701821705
 20
-848.6390812559
 10
868.4594857393
 20
-847.0419423452
 10
861.424975441
 20
-845.6364386073
 10
854.282586704
 20
-844.4257539602
 10
847.0484993361
 20
-843.4126309942
 10
839.7391008718
 20
-842.5993647584
 10
832.3709494496
 20
-841.9877975627
 10
824.9607363024
 20
-841.5793148032
 10
817.5252479462
 20
-841.374841825
 10
810.0813281538
 20
-841.374841825
 10
802.6458397976
 20
-841.5793148032
 10
795.2356266504
 20
-841.9877975627
 10
787.8674752282
 20
-842.5993647584
 10
780.5580767639
 20
-843.4126309942
 10
773.323989396
 20
-844.4257539602
 10
766.181600659
 20
-845.6364386073
 10
759.1470903607
 20
-847.0419423452
 10
752.2363939295
 20
-848.6390812559
 10
745.4651663154
 20
-850.4242373062
 10
738.848746527
 20
-852.3933665433
 10
732.402122883
 20
-854.5420082563
 10
726.1398990595
 20
-856.8652950805
 10
720.0762610076
 20
-859.3579640241
 10
714.2249448178
 20
-862.0143683902
 10
708.5992056031
 20
-864.8284905684
 10
703.2117874724
 20
-867.793955667
  0
LWPOLYLINE
  5
E8
330
1F
100
AcDbEntity
  8
0
  6
Continuous
 62
     1
370
    25
100
AcDbPolyline
 90
       19
 70
   128
 43
0.0
 10
939.3147417106
 20
-676.6839786309
 10
944.9058817933
 20
-679.7677965969
 10
950.4859211848
 20
-682.5577349275
 10
956.0437812336
 20
-685.0482544582
 10
961.5684273229
 20
-687.2344104931
 10
967.0488907793
 20
-689.1118626218
 10
972.4742906499
 20
-690.6768833368
 10
977.8338553055
 20
-691.9263654343
 10
983.1169438266
 20
-692.8578281834
 10
988.3130671299
 20
-693.4694222509
 10
993.4119087936
 20
-693.7599333734
 10
998.4033455395
 20
-693.7287847681
 10
1003.277467332
 20
-693.3760382775
 10
1008.0245970534
 20
-692.7023942471
 10
1012.6353097172
 20
-691.709190135
 10
1017.10045118
 20
-690.3983978557
 10
1021.4111563169
 20
-688.7726198662
 10
1025.5588666218
 20
-686.8350839981
 10
1028.0575292321
 20
-685.4716575937
  0
LWPOLYLINE
  5
E9
330
1F
100
AcDbEntity
  8
0
  6
Continuous
 62
     1
370
    25
100
AcDbPolyline
 90
       54
 70
   128
 43
0.0
 10
850.5719541892
 20
-378.0243114486
 10
847.17258796
 20
-380.1431526037
 10
843.4676444308
 20
-382.8419185319
 10
839.9529964413
 20
-385.8363236706
 10
836.6356219997
 20
-389.1204229058
 10
833.5221074458
 20
-392.6876959623
 10
830.6186343746
 20
-396.5310603497
 10
827.9309673632
 20
-400.6428854237
 10
825.4644425255
 20
-405.0150075364
 10
823.2239569184
 20
-409.6387462439
 10
821.2139588186
 20
-414.504921541
 10
819.4384388913
 20
-419.6038720872
 10
817.900922267
 20
-424.925474388
 10
816.6044615426
 20
-430.4591628948
 10
815.5516307208
 20
-436.1939509811
 10
814.7445200999
 20
-442.1184527562
 10
814.1847321232
 20
-448.22090567
 10
813.873378198
 20
-454.4891938673
 10
813.8110764886
 20
-460.910872242
 10
813.9979506894
 20
-467.4731911461
 10
814.4336297788
 20
-474.163121703
 10
815.1172487564
 20
-480.9673816746
 10
816.0474503601
 20
-487.8724618327
 10
817.2223877605
 20
-494.8646527798
 10
818.6397282283
 20
-501.930072168
 10
820.2966577652
 20
-509.0546922611
 10
822.1898866909
 20
-516.2243677854
 10
824.3156561746
 20
-523.4248640138
 10
826.6697456979
 20
-530.6418850275
 10
829.2474814338
 20
-537.8611020994
 10
832.0437455267
 20
-545.0681821422
 10
835.0529862531
 20
-552.2488161656
 10
838.269229044
 20
-559.3887476854
 10
841.686088347
 20
-566.4738010285
 10
845.2967803044
 20
-573.4899094773
 10
849.0941362214
 20
-580.4231431979
 10
853.0706167994
 20
-587.2597368965
 10
857.2183271043
 20
-593.9861171492
 10
861.5290322412
 20
-600.5889293507
 10
865.9941737041
 20
-607.0550642283
 10
870.6048863678
 20
-613.37168387
 10
875.3520160893
 20
-619.5262472121
 10
880.2261378818
 20
-625.5065349387
 10
885.2175746277
 20
-631.3006737422
 10
890.3164162913
 20
-636.8971598963
 10
895.5125395946
 20
-642.2848820957
 10
900.7956281157
 20
-647.4531435168
 10
906.1551927713
 20
-652.3916830549
 10
911.5805926419
 20
-657.0906956968
 10
917.0610560984
 20
-661.540851988
 10
922.5857021877
 20
-665.733316555
 10
928.1435622364
 20
-669.6597656476
 10
933.723601628
 20
-673.3124036644
 10
939.3147417106
 20
-676.6839786309
  0
LWPOLYLINE
  5
EA
330
1F
100
AcDbEntity
  8
0
  6
Continuous
 62
     1
370
    25
100
AcDbPolyline
 90
       19
 70
   128
 43
0.0
 10
939.3147417106
 20
-676.6839786309
 10
944.7812861066
 20
-679.983602656
 10
949.9877858113
 20
-683.4205307009
 10
954.9239038016
 20
-686.987939063
 10
959.579839872
 20
-690.6787449832
 10
963.9463500925
 20
-694.4856207081
 10
968.0147651612
 20
-698.4010080382
 10
971.7770076167
 20
-702.4171333344
 10
975.2256078746
 20
-706.5260229517
 10
978.3537190585
 20
-710.7195190702
 10
981.1551305932
 20
-714.9892958913
 10
983.6242805353
 20
-719.3268761686
 10
985.7562666162
 20
-723.7236480378
 10
987.5468559749
 20
-728.1708821153
 10
988.9924935619
 20
-732.6597488297
 10
990.0903091977
 20
-737.1813359515
 10
990.8381232709
 20
-741.726666288
 10
991.2344510659
 20
-746.2867155066
 10
991.30328805
 20
-749.1401985551
  0
LWPOLYLINE
  5
EB
330
1F
100
AcDbEntity
  8
0
  6
Continuous
 62
     1
370
    25
100
AcDbPolyline
 90
       54
 70
   128
 43
0.0
 10
636.30328805
 20
-749.1401985551
 10
636.4382001666
 20
-745.1458180925
 10
636.9225005973
 20
-740.5886006582
 10
637.7579814586
 20
-736.04836163
 10
638.9429839806
 20
-731.5341152321
 10
640.4751554505
 20
-727.054824083
 10
642.3514538837
 20
-722.6193814006
 10
644.5681540633
 20
-718.2365933458
 10
647.1208549362
 20
-713.9151615386
 10
650.0044883513
 20
-709.6636657817
 10
653.2133291212
 20
-705.4905470266
 10
656.7410063896
 20
-701.4040906141
 10
660.5805162799
 20
-697.4124098253
 10
664.7242358006
 20
-693.5234297729
 10
669.1639379801
 20
-689.7448716668
 10
673.8908082007
 20
-686.0842374843
 10
678.8954616991
 20
-682.5487950758
 10
684.1679621991
 20
-679.1455637349
 10
689.697841639
 20
-675.8813002624
 10
695.4741209549
 20
-672.7624855513
 10
701.4853318791
 20
-669.7953117195
 10
707.7195397086
 20
-666.985669816
 10
714.1643670008
 20
-664.3391381248
 10
720.8070181478
 20
-661.8609710895
 10
727.6343047805
 20
-659.5560888813
 10
734.6326719533
 20
-657.4290676306
 10
741.788225056
 20
-655.4841303412
 10
749.0867574003
 20
-653.725138506
 10
756.5137784257
 20
-652.1555844405
 10
764.0545424695
 20
-650.778584349
 10
771.6940780426
 20
-649.5968721377
 10
779.4172175545
 20
-648.6127939869
 10
787.2086274264
 20
-647.8283036925
 10
795.0528385352
 20
-647.2449587876
 10
802.9342769259
 20
-646.8639174493
 10
810.8372947321
 20
-646.6859362
 10
818.7462012435
 20
-646.711368405
 10
826.6452940583
 20
-646.940163571
 10
834.5188902589
 20
-647.3718674464
 10
842.3513575488
 20
-648.0056229231
 10
850.1271452893
 20
-648.8401717382
 10
857.8308153735
 20
-649.8738569724
 10
865.4470728776
 20
-651.1046263392
 10
872.9607964273
 20
-652.5300362601
 10
880.35706822
 20
-654.1472567155
 10
887.6212036426
 20
-655.953076864
 10
894.7387804268
 20
-657.9439114168
 10
901.6956672826
 20
-660.1158077562
 10
908.4780519552
 20
-662.4644537831
 10
915.0724686475
 20
-664.9851864781
 10
921.4658247557
 20
-667.6730011598
 10
927.6454268629
 20
-670.522561421
 10
933.5990059413
 20
-673.5282097235
 10
939.3147417106
 20
-676.6839786309
  0
ENDSEC
  0
SECTION
  2
OBJECTS
  0
DICTIONARY
  5
C
330
0
100
AcDbDictionary
281
     1
  3
ACAD_GROUP
350
D
  3
ACAD_LAYOUT
350
1A
  3
ACAD_MLINESTYLE
350
17
  3
ACAD_PLOTSETTINGS
350
19
  3
ACAD_PLOTSTYLENAME
350
E
  3
ACAD_SCALELIST
350
47
  3
DWGPROPS
350
EC
  0
DICTIONARY
  5
D
102
{ACAD_REACTORS
330
C
102
}
330
C
100
AcDbDictionary
281
     1
  0
DICTIONARY
  5
1A
102
{ACAD_REACTORS
330
C
102
}
330
C
100
AcDbDictionary
281
     1
  3
Layout1
350
1E
  3
Layout2
350
26
  3
Model
350
22
  0
DICTIONARY
  5
17
102
{ACAD_REACTORS
330
C
102
}
330
C
100
AcDbDictionary
281
     1
  3
Standard
350
18
  0
DICTIONARY
  5
19
102
{ACAD_REACTORS
330
C
102
}
330
C
100
AcDbDictionary
281
     1
  0
ACDBDICTIONARYWDFLT
  5
E
102
{ACAD_REACTORS
330
C
102
}
330
C
100
AcDbDictionary
281
     1
  3
Normal
350
F
100
AcDbDictionaryWithDefault
340
F
  0
DICTIONARY
  5
47
102
{ACAD_REACTORS
330
C
102
}
330
C
100
AcDbDictionary
281
     1
  3
A0
350
48
  3
A1
350
49
  3
A2
350
4A
  3
A3
350
4B
  3
A4
350
4C
  3
A5
350
4D
  3
A6
350
4E
  3
A7
350
4F
  3
A8
350
50
  3
A9
350
51
  3
B0
350
52
  3
B1
350
53
  3
B2
350
54
  3
B3
350
55
  3
B4
350
56
  3
B5
350
57
  3
B6
350
58
  3
B7
350
59
  3
B8
350
5A
  3
B9
350
5B
  3
C0
350
5C
  3
C1
350
5D
  3
C2
350
5E
  3
C3
350
5F
  3
C4
350
60
  3
C5
350
61
  3
C6
350
62
  3
C7
350
63
  3
C8
350
64
  3
C9
350
65
  3
D0
350
66
  3
D1
350
67
  3
D2
350
68
  0
XRECORD
  5
EC
102
{ACAD_REACTORS
330
C
102
}
330
C
100
AcDbXrecord
280
     1
  1
DWGPROPS COOKIE
  2

  3

  4

  6

  7

  8
b.kav
  9

300
=
301
=
302
=
303
=
304
=
305
=
306
=
307
=
308
=
309
=
 40
0.0
 41
2459935.574927882
 42
2459935.574928067
  1

 90
        0
  0
LAYOUT
  5
1E
102
{ACAD_REACTORS
330
1A
102
}
330
1A
100
AcDbPlotSettings
  1

  2
none_device
  4

  6

 40
0.0
 41
0.0
 42
0.0
 43
0.0
 44
0.0
 45
0.0
 46
0.0
 47
0.0
 48
0.0
 49
0.0
140
0.0
141
0.0
142
1.0
143
1.0
 70
   688
 72
     1
 73
     0
 74
     5
  7

 75
    16
147
1.0
148
0.0
149
0.0
100
AcDbLayout
  1
Layout1
 70
     1
 71
     1
 10
0.0
 20
0.0
 11
420.0
 21
297.0
 12
0.0
 22
0.0
 32
0.0
 14
1.0000000000E+20
 24
1.0000000000E+20
 34
1.0000000000E+20
 15
-1.0000000000E+20
 25
-1.0000000000E+20
 35
-1.0000000000E+20
146
0.0
 13
0.0
 23
0.0
 33
0.0
 16
1.0
 26
0.0
 36
0.0
 17
0.0
 27
1.0
 37
0.0
 76
     0
330
1B
  0
LAYOUT
  5
26
102
{ACAD_REACTORS
330
1A
102
}
330
1A
100
AcDbPlotSettings
  1

  2
none_device
  4

  6

 40
0.0
 41
0.0
 42
0.0
 43
0.0
 44
0.0
 45
0.0
 46
0.0
 47
0.0
 48
0.0
 49
0.0
140
0.0
141
0.0
142
1.0
143
1.0
 70
   688
 72
     1
 73
     0
 74
     5
  7

 75
    16
147
1.0
148
0.0
149
0.0
100
AcDbLayout
  1
Layout2
 70
     1
 71
     2
 10
0.0
 20
0.0
 11
0.0
 21
0.0
 12
0.0
 22
0.0
 32
0.0
 14
0.0
 24
0.0
 34
0.0
 15
0.0
 25
0.0
 35
0.0
146
0.0
 13
0.0
 23
0.0
 33
0.0
 16
1.0
 26
0.0
 36
0.0
 17
0.0
 27
1.0
 37
0.0
 76
     0
330
23
  0
LAYOUT
  5
22
102
{ACAD_REACTORS
330
1A
102
}
330
1A
100
AcDbPlotSettings
  1

  2
none_device
  4
Letter_(8.50_x_11.00_Inches)
  6

 40
6.35
 41
6.35
 42
6.35000508
 43
6.35000508
 44
215.9
 45
279.4
 46
0.0
 47
0.0
 48
0.0
 49
0.0
140
0.0
141
0.0
142
1.0
143
1.0
 70
  1712
 72
     1
 73
     0
 74
     0
  7

 75
     0
147
1.0
148
0.0
149
0.0
100
AcDbLayout
  1
Model
 70
     1
 71
     0
 10
0.0
 20
0.0
 11
279.4
 21
215.9
 12
0.0
 22
0.0
 32
0.0
 14
0.0
 24
0.0
 34
0.0
 15
279.4
 25
215.9
 35
0.0
146
0.0
 13
0.0
 23
0.0
 33
0.0
 16
1.0
 26
0.0
 36
0.0
 17
0.0
 27
1.0
 37
0.0
 76
     0
330
1F
331
29
  0
MLINESTYLE
  5
18
102
{ACAD_REACTORS
330
17
102
}
330
17
100
AcDbMlineStyle
  2
Standard
 70
     0
  3

 62
   256
 51
90.0
 52
90.0
 71
     2
 49
0.5
 62
   256
  6
BYLAYER
 49
-0.5
 62
   256
  6
BYLAYER
  0
ACDBPLACEHOLDER
  5
F
102
{ACAD_REACTORS
330
E
102
}
330
E
  0
SCALE
  5
48
102
{ACAD_REACTORS
330
47
102
}
330
47
100
AcDbScale
 70
     0
300
1:1
140
1.0
141
1.0
290
     1
  0
SCALE
  5
49
102
{ACAD_REACTORS
330
47
102
}
330
47
100
AcDbScale
 70
     0
300
1:2
140
1.0
141
2.0
290
     0
  0
SCALE
  5
4A
102
{ACAD_REACTORS
330
47
102
}
330
47
100
AcDbScale
 70
     0
300
1:4
140
1.0
141
4.0
290
     0
  0
SCALE
  5
4B
102
{ACAD_REACTORS
330
47
102
}
330
47
100
AcDbScale
 70
     0
300
1:5
140
1.0
141
5.0
290
     0
  0
SCALE
  5
4C
102
{ACAD_REACTORS
330
47
102
}
330
47
100
AcDbScale
 70
     0
300
1:8
140
1.0
141
8.0
290
     0
  0
SCALE
  5
4D
102
{ACAD_REACTORS
330
47
102
}
330
47
100
AcDbScale
 70
     0
300
1:10
140
1.0
141
10.0
290
     0
  0
SCALE
  5
4E
102
{ACAD_REACTORS
330
47
102
}
330
47
100
AcDbScale
 70
     0
300
1:16
140
1.0
141
16.0
290
     0
  0
SCALE
  5
4F
102
{ACAD_REACTORS
330
47
102
}
330
47
100
AcDbScale
 70
     0
300
1:20
140
1.0
141
20.0
290
     0
  0
SCALE
  5
50
102
{ACAD_REACTORS
330
47
102
}
330
47
100
AcDbScale
 70
     0
300
1:30
140
1.0
141
30.0
290
     0
  0
SCALE
  5
51
102
{ACAD_REACTORS
330
47
102
}
330
47
100
AcDbScale
 70
     0
300
1:40
140
1.0
141
40.0
290
     0
  0
SCALE
  5
52
102
{ACAD_REACTORS
330
47
102
}
330
47
100
AcDbScale
 70
     0
300
1:50
140
1.0
141
50.0
290
     0
  0
SCALE
  5
53
102
{ACAD_REACTORS
330
47
102
}
330
47
100
AcDbScale
 70
     0
300
1:100
140
1.0
141
100.0
290
     0
  0
SCALE
  5
54
102
{ACAD_REACTORS
330
47
102
}
330
47
100
AcDbScale
 70
     0
300
2:1
140
2.0
141
1.0
290
     0
  0
SCALE
  5
55
102
{ACAD_REACTORS
330
47
102
}
330
47
100
AcDbScale
 70
     0
300
4:1
140
4.0
141
1.0
290
     0
  0
SCALE
  5
56
102
{ACAD_REACTORS
330
47
102
}
330
47
100
AcDbScale
 70
     0
300
8:1
140
8.0
141
1.0
290
     0
  0
SCALE
  5
57
102
{ACAD_REACTORS
330
47
102
}
330
47
100
AcDbScale
 70
     0
300
10:1
140
10.0
141
1.0
290
     0
  0
SCALE
  5
58
102
{ACAD_REACTORS
330
47
102
}
330
47
100
AcDbScale
 70
     0
300
100:1
140
100.0
141
1.0
290
     0
  0
SCALE
  5
59
102
{ACAD_REACTORS
330
47
102
}
330
47
100
AcDbScale
 70
     0
300
1/128" = 1'-0"
140
0.0078125
141
12.0
290
     0
  0
SCALE
  5
5A
102
{ACAD_REACTORS
330
47
102
}
330
47
100
AcDbScale
 70
     0
300
1/64" = 1'-0"
140
0.015625
141
12.0
290
     0
  0
SCALE
  5
5B
102
{ACAD_REACTORS
330
47
102
}
330
47
100
AcDbScale
 70
     0
300
1/32" = 1'-0"
140
0.03125
141
12.0
290
     0
  0
SCALE
  5
5C
102
{ACAD_REACTORS
330
47
102
}
330
47
100
AcDbScale
 70
     0
300
1/16" = 1'-0"
140
0.0625
141
12.0
290
     0
  0
SCALE
  5
5D
102
{ACAD_REACTORS
330
47
102
}
330
47
100
AcDbScale
 70
     0
300
3/32" = 1'-0"
140
0.09375
141
12.0
290
     0
  0
SCALE
  5
5E
102
{ACAD_REACTORS
330
47
102
}
330
47
100
AcDbScale
 70
     0
300
1/8" = 1'-0"
140
0.125
141
12.0
290
     0
  0
SCALE
  5
5F
102
{ACAD_REACTORS
330
47
102
}
330
47
100
AcDbScale
 70
     0
300
3/16" = 1'-0"
140
0.1875
141
12.0
290
     0
  0
SCALE
  5
60
102
{ACAD_REACTORS
330
47
102
}
330
47
100
AcDbScale
 70
     0
300
1/4" = 1'-0"
140
0.25
141
12.0
290
     0
  0
SCALE
  5
61
102
{ACAD_REACTORS
330
47
102
}
330
47
100
AcDbScale
 70
     0
300
3/8" = 1'-0"
140
0.375
141
12.0
290
     0
  0
SCALE
  5
62
102
{ACAD_REACTORS
330
47
102
}
330
47
100
AcDbScale
 70
     0
300
1/2" = 1'-0"
140
0.5
141
12.0
290
     0
  0
SCALE
  5
63
102
{ACAD_REACTORS
330
47
102
}
330
47
100
AcDbScale
 70
     0
300
3/4" = 1'-0"
140
0.75
141
12.0
290
     0
  0
SCALE
  5
64
102
{ACAD_REACTORS
330
47
102
}
330
47
100
AcDbScale
 70
     0
300
1" = 1'-0"
140
1.0
141
12.0
290
     0
  0
SCALE
  5
65
102
{ACAD_REACTORS
330
47
102
}
330
47
100
AcDbScale
 70
     0
300
1-1/2" = 1'-0"
140
1.5
141
12.0
290
     0
  0
SCALE
  5
66
102
{ACAD_REACTORS
330
47
102
}
330
47
100
AcDbScale
 70
     0
300
3" = 1'-0"
140
3.0
141
12.0
290
     0
  0
SCALE
  5
67
102
{ACAD_REACTORS
330
47
102
}
330
47
100
AcDbScale
 70
     0
300
6" = 1'-0"
140
6.0
141
12.0
290
     0
  0
SCALE
  5
68
102
{ACAD_REACTORS
330
47
102
}
330
47
100
AcDbScale
 70
     0
300
1'-0" = 1'-0"
140
12.0
141
12.0
290
     0
  0
ENDSEC
  0
EOF
